tablaturas, partituras y acordes para guitarra
Busca por banda/artista:
 
y/o título de la canción:
A B C D E F G H I J K L M N O P Q R S T U V W X Y Z 0 1 2 3 4 5 6 7 8 9 / Top 100 tabs
Categorías
Usuarios
usuario:
Darse de alta
password:
Artistas más visitados
Publicidad
TOP acordes y tablaturas de Jackson


Estás en: Inicio > Letra J > Acordes y tablaturas de Jackson > Here comes hollow
Here comes hollow
de Jackson
Puntúa este acorde/tab:      
(0.8/5)
Reportar este acorde/tab
  Añadir a tus favoritos
  Imprimir
***INTRO***

part1(with...Flanger and/or delay???eh!)
e-----------------------------------
B-----------------------------------
G-14--10----------------------------
D---------14--12--------------------
A-----------------------------------
E-----------------------------------

part2 (w/ disto')
e---------------------------------------------
B---------------------------------------------
G-----7-7-7-7-7-7-9-9-10-10-10-10-10-10-10-10-
D-----x-x-x-x-x-x-x-x--x--x--x--x--x--x--x--x-
A-----5-5-5-5-5-5-7-7--8--8--8--8--8--8--8--8-
E-15-----------------------------------------
                                               X2
e---------------------------------------------
B---------------------------------------------
G-----14-14-14-14-12-12-10-10-9-9-9-9-7-7-9-9-
D------x--x--x--x--x--x--x--x-x-x-x-x-x-x-x-x-
A-----12-12-12-12-10-10--8--8-7-7-7-7-5-5-7-7-
E---------------------------------------------

part3
e--------------------------------------------------
B--10-10-10-10-10-10-10-10-10-10-10-10-10-10-10-10-
G---x--x--x--x--x--x--x--x--x--x--x--x--x--x--x--x-
D---7--7--7--7--7--7--7--7--7--7--7--7--7--7--7--7-
A--------------------------------------------------
E--------------------------------------------------
                                                    X2
e--------------------------------------------------
B--10-10-10-10-10-10-10-10-------------------------
G---x--x--x--x--x--x--x--x-12-12-12-12-12-12-12-12-
D---7--7--7--7--7--7--7--7--x--x--x--x--x--x--x--x-
A--------------------------10-10-10-10-10-10-10-10-
E--------------------------------------------------

part4
e------------------------------------------------------
B------------------------------------------------------
G----0~--------------0~--------------0~-----------5----
D-7----7--5--5-5--7----7--5--5-5--7----7--5--5-5--5--3-
A-7----7--5--5-5--7----7--5--5-5--7----7--5--5-5--3--3-
E-5----5--3--3-3--5----5--3--3-3--5----5--3--3-3-----1-

***Verse***
(palm muted/clean/slight disto' whatever...can't hear it right)
e---------------------------------------------------------
B---------------------------------------------------------
G-----------------7-7-7-7-7-7-7-7-10-10-10-10-10-10-10-10-
D-7-7-7-7-7-7-7-7-7-7-7-7-7-7-7-7-10-10-10-10-10-10-10-10-
A-7-7-7-7-7-7-7-7-5-5-5-5-5-5-5-5--8--8--8--8--8--8--8--8-
E-5-5-5-5-5-5-5-5-----------------------------------------

e----------------------
B----------------------
G----------------------
D-10-10-10-10-9-9-9-9--
A-10-10-10-10-9-9-9-9--
E--8--8--8--8-7-7-7-7--

***Chorus***
e-----------------------------------------------------
B-----------------------------------------------------
G-10--10-10-10-10-10-10-5--5-5-5-5-5-5-9--9-9-9-9-9-9-
D-10--10-10-10-10-10-10-5--5-5-5-5-5-5-9--9-9-9-9-9-9-
A--8---8--8--8--8--8--8-3--3-3-3-3-3-3-7--7-7-7-7-7-7-
E-----------------------------------------------------

e----------------------
B----------------------
G----------------------
D--7--7-7---5--5-5-----  X4
A--7--7-7---5--5-5-----
E--5--5-5---3--3-3-----


***Interlude***
w/flanger and/or delay
e-------------------------------------------------
B-------------------------------------------------
G------0~------------0~--------0~-----------------
D--------0~--------0~--(0)-------0~---7~----5~----
A----------(0)3--3--------------------7~----5~----
E-1--1--------------------3--3-----(0)5~----3~----

interlude ends with an F floats into chorus blablabla...

***outro***
e------------------------------------------------------------
B------------------------------------------------------------
G----0~--------------0~--------------0~-----------5----------
D-7----7--5--5-5--7----7--5--5-5--7----7--5--5-5--5--3~------
A-7----7--5--5-5--7----7--5--5-5--7----7--5--5-5--3--3~------
E-5----5--3--3-3--5----5--3--3-3--5----5--3--3-3-----1~--/8~-

end!

keys,

h=hammer on
p=pull off
()=ghost note
/=slide up
=slide down
~=let ring		   
AcordesyTabs.com © 2008 Acordes y Tablaturas para guitarra. Tabs and Chords for guitar. Aviso Legal - Contacto
El uso de este sitio está sujeto a la aceptación de los términos y condiciones (20 usuarios online)