tablaturas, partituras y acordes para guitarra
Busca por banda/artista:
 
y/o título de la canción:
A B C D E F G H I J K L M N O P Q R S T U V W X Y Z 0 1 2 3 4 5 6 7 8 9 / Top 100 tabs
Categorías
Usuarios
usuario:
Darse de alta
password:
Artistas más visitados
Publicidad
TOP acordes y tablaturas de Maskavo


Estás en: Inicio > Letra M > Acordes y tablaturas de Maskavo > Um anjo do céu
Um anjo do céu
de Maskavo
Puntúa este acorde/tab:      
(0.6/5)
Reportar este acorde/tab
  Añadir a tus favoritos
  Imprimir
Intro: 
G------------------------------------------------------
D------2/4--4h6-4-2-2---------2/4--4h6-4-2-2-----------
A--2-2----------------2---2-2----------------2------1--
E-----------------------------------------------2-4----

G-----------------------------------------------
D------2/4--4h6-4-2-2---------2/4--4h6-4-2-2----
A--2-2----------------2---2-2----------------2--
E-----------------------------------------------

Verso:
G------------------------------------------------
D------------------------------------------------
A--2-2-2-2-2-----2-----2--2-2-2-2-2-----2-----2--
E------------2-4---2-4--------------2-4---2-4----

G----------------------------------------6---6---6----
D--------------------------2-2-2-2-2-4-4---4---4---4--
A--4-4-4-4-4-----4-----4------------------------------
E------------2-4---2-4--------------------------------

Refrão:
G----------------------------------------------
D------4/6-4-----------------------------------
A--2-2------------4/6-6------2/4-4--2-------1--
E-------------2-2--------0-0------------2-4----

Solo:
G------------------------------------------------
D------------------------------------------------
A--2-2-2-2-2-----2-----2--2-2-2-2-2-----2-----2--
E------------2-4---2-4--------------2-4---2-4----

G----------------------------------------6---6---6----
D--------------------------2-2-2-2-2-4-4---4---4---4--
A--4-4-4-4-4-----4-----4------------------------------
E------------2-4---2-4--------------------------------

Fim:
G-----------------------------
D-----------------------------
A--2---2-----------------1-2--
E--------2---2-0---0-2-4------		   
AcordesyTabs.com © 2008 Acordes y Tablaturas para guitarra. Tabs and Chords for guitar. Aviso Legal - Contacto
El uso de este sitio está sujeto a la aceptación de los términos y condiciones (95 usuarios online)