tablaturas, partituras y acordes para guitarra
Busca por banda/artista:
 
y/o título de la canción:
A B C D E F G H I J K L M N O P Q R S T U V W X Y Z 0 1 2 3 4 5 6 7 8 9 / Top 100 tabs
Categorías
Usuarios
usuario:
Darse de alta
password:
Artistas más visitados
Publicidad
TOP acordes y tablaturas de Metallica


Estás en: Inicio > Letra M > Acordes y tablaturas de Metallica > Enter sadman
Enter sadman
de Metallica
Puntúa este acorde/tab:      
(0.6/5)
Reportar este acorde/tab
  Añadir a tus favoritos
  Imprimir
------------------|--------------------------|--------------------------|
------------------|--------------------------|--------------------------|
------------------|--------------------------|--------------------------|
------------------|--0--0--0--0--0--0--0--0--|--0--0--0--0--0--0--0--0--|


                                                      
--------------------------|--------------------------|
--------------------------|--------------------------|
--------------------------|--------------------------|
--0--0--0--0--0--0--0--0--|--0--0--0--0--0--0--0--0--|


                                                      
--------------------------|--------------------------|
--------------------------|--------------------------|
--------------------------|--------------------------|
--0--0--0--0--0--0--0--1--|--0--0--0--0--0--0--0--1--|


                                                      
--------------------------|--------------------------|
--------------------------|--------------------------|
--------------------------|--------------------------|
--0--0--0--1--0--0--0--1--|--0--0--0--0--0--0--0--1--|


                                                      
--------------------------|--------------------------|
--------------------------|--------------------------|
--------------------------|--------------------------|
--0--0--0--0--0--0--0--1--|--0--0--0--0--0--0--0--1--|


                                                                               
--------------------------|------------------------|--------------------------|
--------------------------|------------------------|--------------------------|
--------------------------|------------------------|--------------------------|
--0--0--0--0--0--0--0--1--|--0--0--0--5----5----1--|--0--0--0--0--0--0--0--1--|


                                                      
--------------------------|--------------------------|
--------------------------|--------------------------|
--------------------------|--------------------------|
--0--0--0--0--0--0--0--1--|--0--0--0--0--0--0--0--1--|


                                                      
--------------------------|--------------------------|
--------------------------|--------------------------|
--------------------------|--------------------------|
--0--0--0--0--0--0--0--2--|--0--0--0--0--0--0--0--1--|


                                                      
--------------------------|--------------------------|
--------------------------|--------------------------|
--------------------------|--------------------------|
--0--0--0--0--0--0--0--1--|--0--0--0--0--0--0--0--1--|


                                                                               
--------------------------|-------------------------|-------------------------|
--------------------------|-------------------------|-------------------------|
--------------------------|-------------------------|-------------------------|
--0--0--0--0--0--0--0--0--|----0--0--6--5--5--0--0--|----0--0--6--5--5--0--0--|


                                                                             
------------------------|-------------------------|-------------------------|
------------------------|-------------------------|-------------------------|
------------------------|-------------------------|-------------------------|
----0--0--6--5----0--3--|----0--2--0--2--3--2--0--|----0--0--6--5--5--0--0--|


                                                                              
-------------------------|-------------------------|-------------------------|
-------------------------|-------------------------|-------------------------|
-------------------------|-------------------------|-------------------------|
----0--0--6--5--5--0--0--|----0--0--6--5--5--0--3--|----0--0--6--5--5--0--3--|


                                                                               
-------------------------|-------------------------|--------------------------|
-------------------------|-------------------------|--------------------------|
-------------------------|-------------------------|--------------------------|
----0--2--0--2--3--2--0--|----0--0--0--0--0--0--1--|--0--0--0--0--0--0--0--3--|


                                                                              
-------------------------|-------------------------|-------------------------|
-------------------------|-------------------------|-------------------------|
-------------------------|-------------------------|-------------------------|
----0--2--0--2--3--2--0--|----0--0--0--0--0--0--1--|----0--0--0--0--0--0--1--|


                                                                          
--------------------------|-------------------------|--------------------|
--------------------------|-------------------------|--------------------|
--------------------------|-------------------------|----------2---------|
--0--0--0--0--0--0--0--3--|----0--2--0--2--3--2--0--|-----------------2--|


                                                                    
--------------------|--------------------|-------------------------|
--------------------|--------------------|-------------------------|
----------2---------|----------2---------|-------------------------|
-----------------2--|-----------------2--|----2--2--2--2--2--0--1--|


                                                                                
--------------------------|-------------------------|--------------------------|
--------------------------|-------------------------|--------------------------|
-----------3--2--2--2-----|----------3--2--2--2-----|-----------3--2--2--2-----|
--2--2--2--------------2--|----2--2--------------2--|--2--2--2--------------0--|


                                                                                
--------------------------|-------------------------|--------------------------|
--------------------------|-------------------------|--------------------------|
--------5--7--7--5--------|----------3--2--2--2-----|--------------------------|
----5/7-------------7--5--|--2----2--------------0--|--0--0--2--0--4--0--5--0--|


                                                                         
--------------------|-------------------------|-------------------------|
--------------------|-------------------------|-------------------------|
--------------------|-------------------------|-------------------------|
--3--------------0--|----0--0--6--5--5--0--0--|----0--0--6--5--5--0--0--|


                                                                             
------------------------|-------------------------|-------------------------|
------------------------|-------------------------|-------------------------|
------------------------|-------------------------|-------------------------|
----0--0--6--5----0--3--|----0--2--0--2--3--2--0--|----0--0--6--5--5--0--0--|


                                                                              
-------------------------|-------------------------|-------------------------|
-------------------------|-------------------------|-------------------------|
-------------------------|-------------------------|-------------------------|
----0--0--6--5--5--0--0--|----0--0--6--5--5--0--3--|----0--2--0--2--3--2--0--|


                                                                               
-------------------------|-------------------------|--------------------------|
-------------------------|-------------------------|--------------------------|
-------------------------|-------------------------|--------------------------|
----0--0--0--0--0--0--1--|----0--0--0--0--0--0--1--|--0--0--0--0--0--0--0--3--|


                                                                              
-------------------------|-------------------------|-------------------------|
-------------------------|-------------------------|-------------------------|
-------------------------|-------------------------|-------------------------|
----0--2--0--2--3--2--0--|----0--0--0--0--0--0--1--|----0--0--0--0--0--0--1--|


                                                                          
--------------------------|-------------------------|--------------------|
--------------------------|-------------------------|--------------------|
--------------------------|-------------------------|----------2---------|
--0--0--0--0--0--0--0--3--|----0--2--0--2--3--2--0--|-----------------2--|


                                                                    
--------------------|--------------------|-------------------------|
--------------------|--------------------|-------------------------|
----------2---------|----------2---------|-------------------------|
-----------------2--|-----------------2--|----2--2--2--2--2--0--1--|


                                                                                
--------------------------|-------------------------|--------------------------|
--------------------------|-------------------------|--------------------------|
-----------3--2--2--2-----|----------3--2--2--2-----|-----------3--2--2--2-----|
--2--2--2--------------2--|----2--2--------------2--|--2--2--2--------------0--|


                                                                                
--------------------------|-------------------------|--------------------------|
--------------------------|-------------------------|--------------------------|
--------5--7--7--5--------|----------3--2--2--2-----|--------------------------|
----5/7-------------7--5--|--2----2--------------0--|--0--0--2--0--4--0--5--0--|


                                                                         
--------------------|-------------------------|-------------------------|
--------------------|-------------------------|-------------------------|
--------------------|-------------7--7--7-----|-------------------------|
--3--------------0--|----0--0--0-----------0--|----0--0--6--5--5--0--0--|


                                                                              
-------------------------|-------------------------|-------------------------|
-------------------------|-------------------------|-------------------------|
-------------------------|-------------------------|-------------------------|
----0--0--6--5--5--0--0--|----0--0--6--5--5--0--3--|----0--2--0--2--3--2--0--|


                                                                              
-------------------------|-------------------------|-------------------------|
-------------------------|-------------------------|-------------------------|
-------------------------|-------------------------|-------------------------|
----0--0--6--5--5--0--0--|----0--0--6--5--5--0--0--|----0--0--6--5--5--0--3--|


                                                                    
-------------------------|--------------------|--------------------|
-------------------------|--------------------|--------------------|
-------------------------|----------2---------|----------2---------|
----0--2--0--2--3--2--2--|-----------------2--|-----------------2--|


                                                                       
--------------------|----------------------|--------------------------|
--------------------|----------------------|--------------------------|
----------2---------|----------------------|-----------3--2--2--2-----|
-----------------2--|----------0--0--0--1--|--2--2--2--------------2--|


                                                                              
--------------------------|-------------------------|------------------------|
--------------------------|-------------------------|------------------------|
-----------3--2--2--2-----|-----------3--2----2-----|------5--5--------------|
--2--2--2--------------2--|--2--2--2-------------0--|------------7--6--5--3--|


                                                                        
--------------------------|------------------------|-------------------|
--------------------------|------------------------|-------------------|
-----------3--2--2--2-----|------------------0-----|-------------------|
--2--2--2--------------0--|------2--0--3--0-----0--|--0----------------|


                                                      
--------------------------|--------------------------|
--------------------------|--------------------------|
--------------------------|--------------------------|
--0--0--0--0--0--0--0--1--|--0--0--0--0--0--0--0--1--|


                                                      
--------------------------|--------------------------|
--------------------------|--------------------------|
--------------------------|--------------------------|
--0--0--0--0--0--0--0--1--|--0--0--0--0--0--0--0--1--|


                                                      
--------------------------|--------------------------|
--------------------------|--------------------------|
--------------------------|--------------------------|
--0--0--0--0--0--0--0--1--|--0--0--0--0--0--0--0--1--|


                                                      
--------------------------|--------------------------|
--------------------------|--------------------------|
--------------------------|--------------------------|
--0--0--0--0--0--0--0--1--|--0--0--0--0--0--0--0--1--|


                                                      
--------------------------|--------------------------|
--------------------------|--------------------------|
--------------------------|--------------------------|
--0--0--0--0--0--0--0--1--|--0--0--0--0--0--0--0--1--|


                                                      
--------------------------|--------------------------|
--------------------------|--------------------------|
--------------------------|--------------------------|
--0--0--0--0--0--0--0--1--|--0--0--0--0--0--0--0--2--|


                                                      
--------------------------|--------------------------|
--------------------------|--------------------------|
--------------------------|--------------------------|
--2--2--2--2--2--2--2--3--|--2--2--2--2--2--2--2--3--|


                                                      
--------------------------|--------------------------|
--------------------------|--------------------------|
--------------------------|--------------------------|
--2--2--2--2--2--2--2--3--|--2--2--2--2--2--2--2--3--|


                                                      
--------------------------|--------------------------|
--------------------------|--------------------------|
--------------------------|--------------------------|
--2--2--2--2--2--2--2--3--|--2--2--2--2--2--2--2--2--|


                                                      
--------------------------|--------------------------|
--------------------------|--------------------------|
--------------------------|--------------------------|
--2--2--2--2--2--2--2--2--|--2--2--2--2--2--0--0--1--|


                                                      
--------------------------|--------------------------|
--------------------------|--------------------------|
-----------3--2--2--2-----|-----------3--2--2--2-----|
--2--2--2--------------2--|--2--2--2--------------2--|


                                                                                
--------------------------|--------------------------|-------------------------|
--------------------------|--------------------------|-------------------------|
-----------3--2--2--2-----|--------7--5--------7-----|-----------3--2----2-----|
--2--2--2--------------0--|--0--0--------7--7-----5-|--2--2--2-------------0--|


                                                                               
-------------------------|-------------------------|--------------------------|
-------------------------|-------------------------|--------------------------|
-------------------------|----------3--2--2--2-----|-----------3--2--2--2-----|
----0--0--0--0--0--0--1--|--2----2--------------2--|--2--2--2--------------2--|


                                                                             
------------------------|-------------------------|-------------------------|
------------------------|-------------------------|-------------------------|
-----------3--2---------|--------5----7--5--------|-----------3--2----2-----|
--2--2--2------------0--|----5/7------------7--5--|--2--2--2-------------0--|


                                                                  
-------------------------|--------------------|------------------|
-------------------------|--------------------|------------------|
-------------------------|--------------------|------------------|
----0--2--0--3--0--5--0--|--0--------------0--|------------------|


                                                                 
------------------|-------------------|-------------------------|
------------------|-------------------|-------------------------|
------------------|-------------------|-------------------------|
------------------|----------------0--|----0--0--6--5--5--0--0--|


                                                      
--------------------------|--------------------------|
--------------------------|--------------------------|
--------------------------|--------------------------|
--0--0--0--6--5--5--0--0--|--0--0--0--6--5--5--0--0--|


                                                                                
--------------------------|--------------------------|-------------------------|
--------------------------|--------------------------|-------------------------|
--------------------------|--------------------------|-------------------------|
--0--0--0--6--5--5--0--0--|--0--0--0--6--5--5--0--3--|----0--2--0--2--3--2--0--|


                                                      
--------------------------|--------------------------|
--------------------------|--------------------------|
--------------------------|--------------------------|
--0--0--0--0--0--0--0--1--|--0--0--0--0--0--0--0--1--|


                                                      
--------------------------|--------------------------|
--------------------------|--------------------------|
--------------------------|--------------------------|
--0--0--0--0--0--0--0--1--|--0--0--0--0--0--0--0--1--|


                                                      
--------------------------|--------------------------|
--------------------------|--------------------------|
--------------------------|--------------------------|
--0--0--0--0--0--0--0--0--|--0--0--0--0--0--0--0--0--|


                                                      
--------------------------|--------------------------|
--------------------------|--------------------------|
--------------------------|--------------------------|
--0--0--0--0--0--0--0--0--|--0--0--0--0--0--0--0--0--|


                                                      
--------------------------|--------------------------|
--------------------------|--------------------------|
--------------------------|--------------------------|
--0--0--0--0--0--0--0--0--|--0--0--0--0--0--0--0--0--|


                                                      
--------------------------|--------------------------|
--------------------------|--------------------------|
--------------------------|--------------------------|
--0--0--0--0--0--0--0--0--|--0--0--0--0--0--0--0--0--|


                                                      
--------------------------|--------------------------|
--------------------------|--------------------------|
--------------------------|--------------------------|
--0--0--0--0--0--0--0--0--|--0--0--0--0--0--0--0--0--|


                                                      
--------------------------|--------------------------|
--------------------------|--------------------------|
--------------------------|--------------------------|
--0--0--0--0--0--0--0--0--|--0--0--0--0--0--0--0--0--|


                                                      
--------------------------|--------------------------|
--------------------------|--------------------------|
--------------------------|--------------------------|
--0--0--0--0--0--0--0--0--|--0--0--0--0--0--0--0--0--|


                                                      
--------------------------|--------------------------|
--------------------------|--------------------------|
--------------------------|--------------------------|
--0--0--0--0--0--0--0--0--|--0--0--0--0--0--0--0--0--|


                                                                          
--------------------------|--------------------------|------------------||
--------------------------|--------------------------|------------------||
--------------------------|--------------------------|------------------||
--0--0--0--0--0--0--0--0--|--0--0--0--0--0--0--0--0--|------------------||		   
AcordesyTabs.com © 2008 Acordes y Tablaturas para guitarra. Tabs and Chords for guitar. Aviso Legal - Contacto
El uso de este sitio está sujeto a la aceptación de los términos y condiciones (20 usuarios online)