tablaturas, partituras y acordes para guitarra
Busca por banda/artista:
 
y/o título de la canción:
A B C D E F G H I J K L M N O P Q R S T U V W X Y Z 0 1 2 3 4 5 6 7 8 9 / Top 100 tabs
Categorías
Usuarios
usuario:
Darse de alta
password:
Artistas más visitados
Publicidad
TOP acordes y tablaturas de Metallica


Estás en: Inicio > Letra M > Acordes y tablaturas de Metallica > Solo live shit
Solo live shit
de Metallica
Puntúa este acorde/tab:      
(0.1/5)
Reportar este acorde/tab
  Añadir a tus favoritos
  Imprimir
PART: 1
Gb----------------------------------
Db----7-5-7-----------7-55----------
Ab--0--------0-3-5-0-------3-5P0-0--   X4
Eb----------------------------------

Gb----------------------------------
Db----------------------5-----------
Ab-0-3-5--------0-3-5-----0---------   X4
Eb-------2-3--5-------3-----0-------

Gb----------------------------------
Db----7-5-7----------7-55-----------
Ab--0--------0-3-5-0------3-5P0-0---   X1
Eb----------------------------------

Gb-----------------------5H77-------
Db---7-5-7-----------7-55-----5H75--
Ab-0--------0-3-5-0-----------------   X1
Eb----------------------------------

Gb----------------------------------
Db---7-5-7----------7-55------------
Ab-0--------0-3-5-0------3-5P0-0----   X1
Eb----------------------------------

Gb--------------------
Db---7-5-7----------7-
Ab-0--------0-3-5-0--- THE END OF PART: 1
Eb--------------------

PART: 2
Gb------------------                           
Db------------------
Ab----7-------------  RIFF 1
Eb-000-0--0-5-6-7-6-

Gb------------------
Db------------------
Ab---7--------------  RIFF2
Eb-0--0-0-5-6-7-6-7-

Gb------------------
Db------------------
Ab---77----77---7P5-  RIFF 3
Eb-0----0-----0-----

Gb------------------
Db------------------
Ab-5H7-5H7-5H7------  RIFF 4
Eb-0---0---0---7-5-0

Gb------------------
Db------------------
Ab--77-77-77-77-7P5-  RIFF 5
Eb-0----------------

Gb-----------------------------
Db-----------------------------
Ab--77--77--7S0---77---77--7S0-  RIFF 6
Eb-0---0--------0----0---------		   
AcordesyTabs.com © 2008 Acordes y Tablaturas para guitarra. Tabs and Chords for guitar. Aviso Legal - Contacto
El uso de este sitio está sujeto a la aceptación de los términos y condiciones (37 usuarios online)