tablaturas, partituras y acordes para guitarra
Busca por banda/artista:
 
y/o título de la canción:
A B C D E F G H I J K L M N O P Q R S T U V W X Y Z 0 1 2 3 4 5 6 7 8 9 / Top 100 tabs
Categorías
Usuarios
usuario:
Darse de alta
password:
Artistas más visitados
Publicidad
TOP acordes y tablaturas de Midnight oil


Truganini
de Midnight oil
Puntúa este acorde/tab:      
(0.2/5)
Reportar este acorde/tab
  Añadir a tus favoritos
  Imprimir
This is the way I play it. If you find it unaccurate email me your suggestions !!

Normal tuning


I didn't bother writing down the intro. Just jam the open E.

Verse (x 22)
G---------------|---------------| 
D---------------|---------------| 
A---------------|---------------| 
E-0----5--7-5-7-|-0----3--5-3-5-| 

Chorus (x 1)
G-------------------------|-------------------------|-----------------| 
D-------------------------|-------------------------|-----------------| 
A-------------------------|-------------------------|-----------------| 
E-10-10-10-10-10-10-10-10-|-10-10-10-10-10-10-10-10-|-3-3-3-3-3-3-3-3/| 

G-------------------------|------------------------|------------------------| 
D-------------------------|------------------------|------------------------| 
A-------------------------|------------------------|------------------------| 
E-10-10-10-10-10-10-10-10-|-10-10-10-10-10-10-10-3/|10-10-10-10-10-10-10-10-| 

G-----------------|------------------------|
D-----------------|------------------------|
A-----------------|------------------------|
E-3-3-3-3-3-3-3-3/|10-10-10-10-10-10-10-10-|

G-----------------|-----------------|-----------------|------------------------| 
D-----------------|-----------------|-----------------|------------------------| 
A-----------------|-----------------|-----------------|------------------------| 
E-1-1-1-1-1-1-1-1-|-1-1-1-1-1-1-1-1-|-3-3-3-3-3-3-3-3/|10-10-10-10-10-10-10-10-| 

G------------------------|------------------------|
D------------------------|------------------------|
A------------------------|------------------------|
E-10-10-10-10-10-10-10-3/|10-10-10-10-10-10-10-10-|

G-----------------|-----------------|-----------------|----------------|
D-----------------|-----------------|-----------------|----------------|
A-----------------|-----------------|-3-3-3-3-3-3-3-3-|-3-3-3-3-3/5-5--|
E-5-5-5-5-5-5-5-5-|-0-0-0-0-0-0-0-0-|-----------------|----------------|

Verse (x 11)

Chorus (x1)

Interlude / Last chorus (play twice)
G-----------------|-----------------|-----------------|-----------------| 
D-----------------|-------5-5-7-5-7-|-------5-5-7-5-7-|-------5-5-7-5-7-| 
A-------3-3-5-3-5-|-5-5-5-----------|-5-5-5-----------|-5-5-5-----------| 
E-3-3-3-----------|-----------------|-----------------|-----------------| 

G-----------------|---------------|-----------------|-----------------|
D-----------------|-------5-5-7-5|-----------------|-----------------|
A-------3-3-5-3-5-|-5-5-5---------|-----------------|-----------------|
E-3-3-3-----------|---------------|-1-1-1-1-1-1-1-1-|-1-1-1-1-1-1-1-1-|

G-----------------|-----------------|-----------------|---------------| 
D-----------------|-------5-5-7-5-7-|-------5-5-7-5-7-|-------5-5-7-5| 
A-------3-3-5-3-5-|-5-5-5-----------|-5-5-5-----------|-5-5-5---------| 
E-3-3-3-----------|-----------------|-----------------|---------------| 

G-----------------|-----------------|-----------------|----------------|
D-----------------|-----------------|-----------------|----------------|
A-----------------|-----------------|-3-3-3-3-3-3-3-3-|-3-3-3-3-3/5-5--|
E-5-5-5-5-5-5-5-5-|-0-0-0-0-0-0-0-0-|-----------------|----------------|

The second time the last bar is:
G-----------------|
D-----------------|
A-3-3-3-3-3-------|
E-----------------|

Back to the verse part (x 8)		   
AcordesyTabs.com © 2008 Acordes y Tablaturas para guitarra. Tabs and Chords for guitar. Aviso Legal - Contacto
El uso de este sitio está sujeto a la aceptación de los términos y condiciones (12 usuarios online)