tablaturas, partituras y acordes para guitarra
Busca por banda/artista:
 
y/o título de la canción:
A B C D E F G H I J K L M N O P Q R S T U V W X Y Z 0 1 2 3 4 5 6 7 8 9 / Top 100 tabs
Categorías
Usuarios
usuario:
Darse de alta
password:
Artistas más visitados
Publicidad
TOP acordes y tablaturas de Nerf herder


High school
de Nerf herder
Puntúa este acorde/tab:      
(0.6/5)
Reportar este acorde/tab
  Añadir a tus favoritos
  Imprimir
Intro
G---------------------
D---------------------
A-3~----------------1~
E-------3~----1~------ 
Verse
G-------------------------------------
D-------------------------------------
A----------33333333-------------------
E33333333-----------11111111--00000000

G------------------------------------
D------------------------------------
A33333333-------------------11111111-
E---------33333333-11111111----------

G-------------------------------------
D-------------------------------------
A----------33333333-------------------
E33333333-----------11111111--33333333

Chorus I’m not 100% sure about the chorus
G-------------------------------
D-----1~---5--4-32-1------------
A3~----------------------------- 
E--------------------3~-----5-3 

G----------------------------------------------------
D---------------------1~---5--4-32-1-----------------
A------------------3~--------------------------------
E11111111-00000000-------------------3~--5-3-11111111 
Interlude
G-----------------
D-----------------
A33333333333333333
E-----------------

Order

Intro

Verse 

Chorus

Interlude

Intro

Verse

Chorus

Versex2 for the guitar solo, well it sounds right to me 

Chorus		   
AcordesyTabs.com © 2008 Acordes y Tablaturas para guitarra. Tabs and Chords for guitar. Aviso Legal - Contacto
El uso de este sitio está sujeto a la aceptación de los términos y condiciones (35 usuarios online)