tablaturas, partituras y acordes para guitarra
Busca por banda/artista:
 
y/o título de la canción:
A B C D E F G H I J K L M N O P Q R S T U V W X Y Z 0 1 2 3 4 5 6 7 8 9 / Top 100 tabs
Categorías
Usuarios
usuario:
Darse de alta
password:
Artistas más visitados
Publicidad
TOP acordes y tablaturas de Metallica


Estás en: Inicio > Letra M > Acordes y tablaturas de Metallica > Bleeding Me
Bleeding Me
de Metallica
Puntúa este acorde/tab:      
(0.2/5)
Reportar este acorde/tab
  Añadir a tus favoritos
  Imprimir
ARTIST: METALLICA
SONG: BLEEDING ME
LP: LOAD

LAST WEEK I BROKE MY WAH AND I'M WAITING FOR A NEW SWITCH SO THIS TAB MIGHT NOT 


Intro 
    
      1   2   3   4   1   2   3   4    1   2   3   4   1   2   3   4     
Eb|--------------------------------|--------------------------------|
Bb|--------------------------------|--------------------------------|
Gb|o-------------------------------|--------------------------------|
Db|o--------5-------------------5--|---------5----------------------|
Ab|-----5/7---5-7-------7-----5--7-|-----5/7---5-7-------7-----5----|
Eb|-0---------------0-----5-3------|-0---------------0-----53---3^-|
 
      1   2   3   4   1   2   3   4    1   2   3   4   1   2   3   4     
Eb|--------------------------------|--------------------------------|
Bb|--------------------------------|--------------------------------|
Gb|--------------------------------|-------------------------------o|
Db|---------5-------------------5--|---------5---------------------o|
Ab|-----5/7---5-7-------7-----5--7-|-----5/7---5-7-------5-----5----|
Eb|-0---------------0-----5-3------|-0---------------3-----32---3^-|

  
Intro Fill

      1   2   3   4   1   2   3   4    1   2   3   4   1   2   3   4     
Eb|--------------------------------|--------------------------------|
Bb|-8-------8-------8-------8---6--|-8-------8-------8-------8---6--|
Gb|o-------------------------------|-------------------------------o|
Db|o-------------------------------|-------------------------------o|
Ab|--------------------------------|--------------------------------|
Eb|--------------------------------|--------------------------------|

LEAD GUITAR PART BEFORE CHORUS

Eb|--------------------------|--------------------------------------|
Bb|---5-8BU10R8----8---------|--------------------------------------|
Gb|-7------------7-----------|---7----------------------------------|  X2
Db|-------------------7BU9R7-|-7---7BU9R7--7-5----------------------|
Ab|--------------------------|-----------------7P5-7----------------|
Eb|--------------------------|--------------------------------------|
  

       1   2   3   4   1   2   3   4   1   2   3   4   1   2   3   4     
Eb|-----------------------------------------------------------------|
Bb|-----------------------------------------------------------------|
Gb|o---------------------------------------------------------------o|
Db|o-7-h-9-X-9-------5-h-7-X-7-------5-h-7-X-7---------------------o|
Ab|--7-----X-7---X---5-----X-5---X---5-----X-5---X---5-h-7-X-7------|
Eb|--------------------------------------------------5-------5-X-3^-|


Chorus (the "Caught under wheels roll..." part)
       1   2   3   4   1   2   3   4   1   2   3   4   1   2   3   4     
Eb|-----------------------------------------------------------------|
Bb|-----------------------------------------------------------------|
Gb|o---------------------------------------------------------------o|
Db|o-9---9---9---X---5h7-7---7---X---5h7-7---7---X-----------------o|
Ab|--7---7---7---X---5---5---5---X---5---5---5---X---7---7---7------|
Eb|--------------------------------------------------5---5---5-0-3^-|

{Short pause at about 4'48" then its starts up with}
{The "I am the beast that is the feast..." part} 

       1   2   3   4   1   2   3   4     
Eb|-----------------------------------|
Bb|-----------------------------------|
Gb|o-----------------------------5---o|
Db|o-7h9-----9-----7-----9-----5---5-o|
Ab|--7---X-X-7-X-X-7-X-X-7-X-5--------|
Eb|-----------------------------------|

SOLO
W/WAH
                                                    PM-----                     
Eb|---------------------10BU12-10BU12-10BU12-10BU12-----------------------------
Bb|--------8BU10-10BU12-------------------------------------------5-------------
Gb|-7BU9-7----------------------------------------------------------------------
Db|-----------------------------------------------------------7BU9---------5----
Ab|---------------------------------------------------5-7777------------5-7--5-7
Eb|-----------------------------------------------------------------------------

Eb|--------------------------------------------------------------------------15-
Bb|-----------------------------------------------------------------------------
Gb|-------------------------------------------------------------------5---------
Db|-5-----5-------------------5---5-5--5--7BU9--7BU9-7-5--7BU9--7-5-7---7-------
Ab|---5-7----7BU9R7--------X-7---7----7-----------------------------------------
Eb|-----------------------------------------------------------------------------

Eb|------------------------------15-12--12-------------------12-----------------
Bb|-----------------------------------15--15BU17-15P12-15BU17--15P12-15BU17-15P1
Gb|-12--------------------------------------------------------------------------
Db|---14--14-12---12--------12--------------------------------------------------
Ab|-------------14--14-12-14----------------------------------------------------
Eb|-----------------------------------------------------------------------------
    just guessing---------------------------------------------------------------
Eb|--------------10H12P10---10H12P10---10H12P10---10H12P10---10H12P10---10H12H10
Bb|-15P12----------------12---------12---------12---------12---------12---------
Gb|------14BU16-----------------------------------------------------------------
Db|-----------------------------------------------------------------------------
Ab|-----------------------------------------------------------------------------
Eb|-----------------------------------------------------------------------------
  TP-----------
Eb|-------------------------------10BU12-10P8-----------10BU12-10P8------------1
Bb|-12-14-15-14--12-14-15-14-12---------------10P8-----------------10P8------10-
Gb|-12-14-15-14--12-14-15-14-12--------------------9P7------------------9P7-----
Db|-----------------------------------------------------------------------------
Ab|-----------------------------------------------------------------------------
Eb|-----------------------------------------------------------------------------

THATS WHAT I GOT AND IF THATS NOT RIGHT, IT'LL MAKE A PRETTY GOOD SOLO ANYWAY. I
GOOD LUCK
FIONN
		   
AcordesyTabs.com © 2008 Acordes y Tablaturas para guitarra. Tabs and Chords for guitar. Aviso Legal - Contacto
El uso de este sitio está sujeto a la aceptación de los términos y condiciones (99 usuarios online)