tablaturas, partituras y acordes para guitarra
Busca por banda/artista:
 
y/o título de la canción:
A B C D E F G H I J K L M N O P Q R S T U V W X Y Z 0 1 2 3 4 5 6 7 8 9 / Top 100 tabs
Categorías
Usuarios
usuario:
Darse de alta
password:
Artistas más visitados
Publicidad
TOP acordes y tablaturas de Paul mccartney


Estás en: Inicio > Letra P > Acordes y tablaturas de Paul mccartney > Band on the run
Band on the run
de Paul mccartney
Puntúa este acorde/tab:      
(0.3/5)
Reportar este acorde/tab
  Añadir a tus favoritos
  Imprimir
A (O:O2)
|--------|-----|--5--7--5--7--5--7--5--7--5--7--|--------------|-----|-----|
|--7----|--O--|--------------------------------|--5-----5-----|-----|-----|
|--------|-----|--------------------------------|-----------5--|-----|--5--|
|--------|-----|--------------------------------|--------------|--3--|-----|

|-----------------------|--------|--------------|--------------------|------------------|
|--12--12--12--12--12--|-----5--|--7---7---7--|-----------------4--|--4/5---------7--|
|-----------------------|--------|--------------|--5-----5--5--------|------------------|
|-----------------------|--3-----|--------------|--------------------|------------------|

|-----------|-------------|
|-----------|-------------|
|--5--------|-------------|
|--------2--|--3-----3/5--|

B 1st verse (O:38)
   stuck inside these
|---------------------|--/--7--7--7--7--7--7--7--|-----|---------------------------|-----|
|---------------------|--------------------------|--5--|--/--7--7--7--7--7--7--7--|-----|
|--5------------------|--------------------------|-----|---------------------------|--5--|
|---------------------|--------------------------|-----|---------------------------|-----|

|--7--7--7--7--7--|-----|--------------|--------------|-----------|-----------|-----------|
|-----------------|--5--|--------------|--------------|-----------|-----------|-----------|
|-----------------|-----|--------------|--5-----5-----|-----------|--5--------|-----------|
|-----------------|-----|--3-----3--5--|-----------2--|--3-----5--|--------2--|--3-----5--|

|--------------------|---------------------|
|--------------------|---------------------|
|--5-----(5)--------|---------------------|
|--------------2--2--|--3-----3--3---(3)--|

C (1:19)

|-------------------------|-------------------------|-----------------------|
|-------------------------|-------------------------|-----------------------|
|----------------------3--|--5-----5----------------|--------------------3--|
|--5---5-----O--3---5-----|--------------(O)--O--3--|--5-----5--------5-----|

|-------------------------|-----------------------------|----------------------|
|-------------------------|-----------------------------|----------------------|
|--5-----5----------------|-----------------------------|-------------------3--|
|----------------O--O--3--|--5-----5-----3--5-----O--3--|--5--5-------5--5-----|

|----------------------|-------------------------|---------------------|
|----------------------|-------------------------|---------------------|
|--5--5-------5--------|----------------------3--|--5--5------5--------|
|----------------O--3--|--5-----5-------5--5-----|---------------O--3--|

|------------------------------|
|------------------------------|
|------------------------------|
|--5---5-----3--5-----5-----3--|

D 2nd verse (1:48)
      If I ever...
|------------------------|---------------------------------|-----------------------------|
|------------------------|---------------------------------|-----------------------------|
|------------------------|--3--5-----5-----3--5---5--------|--------------------------3--|
|--5---5-----3--5-----5--|---------------------------O--3--|--5-----5-----3--5-----5-----|

|--------------------------------|-----------------------------|
|-----------------------------5--|-----------------------------|
|--5-----5-----3--5---5--5/7-----|-----------------------------|
|--------------------------------|--5-----5-----3--5-----O--3--|

|-----------------------------|
|-----------------------------|
|-----------------------------|
|--5-----5-----3--5-----O--3--|

E (2:O6)
|-----|----------------------|---------------------|----------------------|--------5---------|
|-----|----------------------|------------------5--|----------------------|--5--7------------|
|-----|--5-----5---(5)---3--|--(3)---3-----/7-----|--5-----5---(5)---3--|------------------|
|--3--|----------------------|---------------------|----------------------|------------3--5--|

                   well the
|-----|-----|-----|--------|
|-----|-----|-----|--------|
|--3--|-----|-----|--------|
|-----|-----|-----|--------|

F% 3rd, 4th & 5th verses (2:23, 3:O8, 4:16)
     rain exploded...
     undertaker...
     night was falling...
|-----------------------------|-----------------------|-------------------|--------------------|
|*----------------------------|-----------------------|-------------------|--------------------|
|*---3------------------------|-----------------------|-------------------|--3--3--------------|
|-------------------------5--|--1-----1----------O---|--1--1--1-----1/3--|-----------------3--|

                                                                              (3rd time) TO CODA                 
|------------------|-----------------------|--------------------------|------------------------|
|------------------|-----------------------|--------------------------|------------------------|
|--3-----3---------|-----------------------|--------------------------|------------------------|
|--------------5--|--1-----1-----------O--|--1-----1----------1--3/--|--O-----O---------O--2--|

G 1st and 2nd pre choruses (2:38, 3:24)
     band on the run
|---------------------|-----------------------|----------------------|------------------|
|-------5-------------|-----------------------|--2---2---------------|------------------|
|---------------------|--3--3--X--X--X--3--3--|----------3-----2--O--|--O--O------------|
|----3-----3--3-------|-----------------------|----------------------|-----------5--3--|

                                                                       for the
|-----------------------|--------------------|----------------------|----------|
|-----------------------|-----5--------------|----------------------|----------|
|-----------------------|--3-----3--3--------|----------------------|----------|
|--1-----O--1--1--1--3--|--------------3--2--|--1-----1-----(O)--1--|----------|

H 1st and 2nd choruses (2:53, 3:39)
   band on the run                                                 1______________________ 
|---------------------|---------------------|---------------------|-----------------------|
|---------------------|---------------------|---------------------|-----------------------|
|--3--------3---------|--3--------3---------|--3--------3---------|--3-----3--3--3--------|
|-----3---------3--5--|-----3---------3--5--|-----3---------3--5--|-----3-----------3--5--|

 _______________________________________________________________________
|-----------------------|-----------------------|-----------------------|
|-----------------------|-----------------------|-----------------------|
|--3-----3--3--3--------|--3-----3--3--3--------|--3-----3--3--3--------|
|-----3-----------3--5--|-----3-----------3--5--|-----3-----------3--5--|

             go back to F            
_________________________
|------------------------|
|-----------------------*|
|--3-----3--3--O-----O--*|
|-----3-----------3------|

2________________________ (3:47)
|------------------------|-------------------------|-----|--------------------|----------------|
|------------------------|-------------------------|-----|--------------------|----------------|
|--3------------3-----5--|--7-----(7)/--1O--(1O)--|--3--|--7-----3-----(3)--|--O-----(O)/15--|
|-------3----------3-----|-------------------------|-----|--------------------|----------------|

I guitar solo (3:52)
|-----------------------------------|------------------|-----------------------------|
|-----------------------------------|------------------|-----------------------------|
|-----------------------------------|--3-----3---------|-----------------------------|
|--1-----1-----1-----1-----1-----3--|--------------3--|--1-----1-----1-----O-----1--|

      yeah the
|--------------|
|--------------|
|--------------|
|--------------|

J 3rd chorus (4:OO)
     band on the run
|--------------------|----------------------|---------------------|---------------------|
|--------------------|----------------------|---------------------|---------------------|
|----3-------3-------|----3--------3--------|----3-------3--------|----3-------3--------|
|--------3------3----|--------3--------3----|--------3-------3----|--------3-------3----|

                                          D.S. % al CODA                  
                                               go back to F            
                                                    well the
|--------------|--------------|--------------|--------------|
|--------------|--------------|--------------|--------------|
|--3-----3-----|--3-----3-----|--3-----3-----|--3-----3-----|
|-----3-----3--|-----3-----3--|-----3-----3--|-----3-----3--|

CODA
K 3rd pre chorus (4:31)
     band on the run
|--------------------|-----------------------|-----------------------|-------------------|-----|
|--------------------|-----------------------|--2--2-----------------|-------------------|-----|
|----------------3---|--3--3--------3--3-----|-----------3--3--2--O--|--O--O-------------|-----|
|----3----3--3-------|--------3-----------3--|-----------------------|-----------5--3--|--1--|

                                                         for the
|-----------------------|-----|-----|-----------------|---------|
|-----------------------|-----|-----|-----------------|---------|
|-----------------------|--3--|-----|-----------------|---------|
|--1-----1-----1-----3--|-----|-----|--1-----3-----5--|---------|

L out chorus (4:51)
     band on the run                                1_________________________
|--------------------|--------------|--------------|--------------------------|
|*-------------------|--------------|--------------|-------------------------*|
|*---3--------3------|--3-----3-----|--3-----3-----|--3--3--------------O--2-*|
|-------3--------3---|-----3-----3--|-----3-----3--|--------3--2--1--3--------|

2_______________________
|-----------------------|-----------------|
|-----------------------|--2-----5--------|
|--3--------------O--2--|--------------3--|
|-----3--2--1--3--------|-----------------|		   
AcordesyTabs.com © 2008 Acordes y Tablaturas para guitarra. Tabs and Chords for guitar. Aviso Legal - Contacto
El uso de este sitio está sujeto a la aceptación de los términos y condiciones (44 usuarios online)