tablaturas, partituras y acordes para guitarra
Busca por banda/artista:
 
y/o título de la canción:
A B C D E F G H I J K L M N O P Q R S T U V W X Y Z 0 1 2 3 4 5 6 7 8 9 / Top 100 tabs
Categorías
Usuarios
usuario:
Darse de alta
password:
Artistas más visitados
Publicidad
TOP acordes y tablaturas de Rush


Estás en: Inicio > Letra R > Acordes y tablaturas de Rush > Test for echo
Test for echo
de Rush
Puntúa este acorde/tab:      
(0.6/5)
Reportar este acorde/tab
  Añadir a tus favoritos
  Imprimir
------------------------------------------------
------------------------------------------------
--0------1------0-------------------------------
------------------------------------------------

Vocal Here we go...

------------------------------------------------
---------------------------------------------5-
--7---5---3----5-----0-----1-----0------7-----
------------------------------------------------


------------------------------------------------
------------5-----------------------------------
--3-------------5------5---7------3------3---5--
------------------------------------------------


------------------------------------------------
------------------------/14--------14------12--
-0----1------0---7----------15------------------
------------------------------------------------


------------------------------------------------
------------------------------------------------
-0-----1---1---0--0--1----0-----7--------------
------------------------------------------------


--------------------12--------------------------
-14--4------------12--------------------------
-------------7-----------14--14--14--14--14---
------------------------------------------------


------------------------------------------------
-------5------------------5-----------------5---
-7--7-----7--5--7---7--5--------7--5--5--7------
------------------------------------------------


------------------------------------------------
---------------------------5------------------5-
-------5---------7---7--7-----7--5--7---7--5----
-7--7------7------------------------------------


------------------------------------------------
-------------5----------------------------------
-7--5--5--7-----7/9--9--9--9--------------------
------------------------------------------------


1st verse half time feel
          harm
-----------7------------------------------------
-----------7------------------------------------
--7------------------7--7----5--5----3-----3----
------------------------------------------------


------------------------------------------------
------------------------------------------------
-3--3--3--3------3--3--2--2--2--0------7--7--7--
------------------------------------------------

    harm
-----7------------------------------------------
-----7---------5--------------------------------
--7---------7-----7---0---3----3---3--3------3--
------------------------------------------------


------------------------------------------------
------------------------------------------------
-2--------------------7---7---7--7----7----5--7-
------5-----5/7-------------------------------


------------------------------------------------
5-----------------------------------------------
-----7----3--3----3--3----3--2h3--0--0--0h2p0-
------------------------------------------------


------------------------------------------------
------------------------------------------------
-7---5h7----7bf-rb7--5----5/7--5--------5-7p5-
----------------------------------x--x----------

              Don't touch that...
------------------------------------------------
------------------------------------------------
-3---3---3----3--2--0--0-----------------------
---------------------------3--/5----------------

Pre-chorus

------------------------------------------------
-----------5-----------------5---------------5--
--7--7--7-----7--5--7--7--5------7--5--5--7-----
------------------------------------------------


------------------------------------------------
--------------------------5-----------------5---
--7/9--9--9--9---7--7--7-----7--5--7--7--5------
------------------------------------------------

------------------------------------------------
--------------5------------------------5--------
--7--5--5--7-----------5------7--7--7-----7--5--7
-----------------7--7-----7---------------------


------------------------------------------------
--------5-------------5-----------------------5-
--7--5-----7--5--5--7----7/9--9h10-9--7--7--7---
------------------------------------------------


------------------------------------------------
----------------5---------------5---------------
--7--5--7--7--5-----7--5--5--7-----------5------
-----------------------------------7--7-----7---


------------------------|-----------------------|
------------------------|-----------------------| repeat
-7----------------------|-7---------------------| bar
----3--4--5--6--7--6--5-|----3--4--5--6--7--6--5|


------------------|------------------------|repeat
------------------|------------------------|bar 2x
-7----------------|-7----------------------|----
----3--4--5--6--5-|----3--4--5--6--7--6--5-|----


------------------------------------------------
----------------------------------------5-------
--7------------------8------7--7--5--7-----7--5-
-----3--4--5------------------------------------


------------------------------------------------
------------------------------------------------
-----5h7--3--3--3--3--------------------------
--x----------------------5bf-rb5-3---5/7--------


2nd verse

------------------------------------------------
-------------5----------------------------------
-7---7--5h7-------7-----5-----5/7--3--3--3--3--
---------------------3-----3--------------------


------------------------------------------------
------------------------------------------------
----------------------7--7--5--7--5----7--7-7bf-
-5bf--rb5--3--3--5/7----------------------------


------------------------------------------------
-------------5----------------------------------
-rb7--5h7-----3--3--3---2b(3)-rb2p0-----------
---------------------------------------3--5--7--


------------------------------------------------
---------5----------------------------5---------
--7---x-----7--5--7--7--5----5--7--7--------5h7
-----------------------------------------7------


------------------------------------------------
-----5------------------5-----------------------
-3------3--3--3---3---3---3---------------------
----------------------------5bf-rb5--3--5/7-----


------------------------------------------------
-------5---------------------5------------------
-7--7-----7--7--5---7----7-7---7-7h8p7p5-7		   
AcordesyTabs.com © 2008 Acordes y Tablaturas para guitarra. Tabs and Chords for guitar. Aviso Legal - Contacto
El uso de este sitio está sujeto a la aceptación de los términos y condiciones (32 usuarios online)