tablaturas, partituras y acordes para guitarra
Busca por banda/artista:
 
y/o título de la canción:
A B C D E F G H I J K L M N O P Q R S T U V W X Y Z 0 1 2 3 4 5 6 7 8 9 / Top 100 tabs
Categorías
Usuarios
usuario:
Darse de alta
password:
Artistas más visitados
Publicidad
TOP acordes y tablaturas de Red hot chili peppers


Sir psycho sexy
de Red hot chili peppers
Puntúa este acorde/tab:      
(0.5/5)
Reportar este acorde/tab
  Añadir a tus favoritos
  Imprimir
Intro:
G-|--------------------|------------------|------------------|--------------|
D-|--------------------|------------------|------------------|--------------|
A-|-7-------4-5---5----|-7------4--5-4----|-7------4-5--5----|-7---5--7-5---| 
E-|--0-5-6-7-------0-0-|--0-5-6-7---------|--0-5-6-7-----0-0-|--0-----------|
							(reapeat for verse)

Verse Bass figure2: (with a synthesizer pedal)
G-|--------------------|------------------|------------------|--------------|
D-|--------------------|------------------|------------------|--------------|
A-|-7-------4-5---5----|-7------4--5-4----|-7------4-5--5----|-7---5--7-5---|
E-|--0-5-6-7-------0-0-|--0-5-6-7---------|--0-5-6-7-----0-0-|--0-----------|

G-|--------------------|------------------|------------------|------------------
D-|--------------------|------------------|------------------|------------------
A-|-7-------4-5---5----|-7------4--5-4----|-7------4-5--5----|-7------5-~--5-5--
E-|--0-5-6-7-------0-0-|--0-5-6-7---------|--0-5-6-7-----0-0-|--0-5-6-7---------

Verse 2:
G-|--------------------|------------------|------------------|--------------|
D-|--------------------|------------------|------------------|--------------|
A-|-7-------4-5---5----|-7------4--5-4----|-7--------4-5--5--|-7---5--7-5---|
E-|--0-5-6-7-------0-0-|--0-5-6-7---------|--0-5-6-7-----0-0-|--0-----------|

G-|------------------|----------------|----------------|------6-7-------|
D-|------------------|----------------|----------------|----5-----------|
A-|-7-------4-5---5--|-7------4--5-4--|-7------4-5--5--|-7-7-----0-4-5-5|
E-|--0-6-7-------0-0-|--0-6-7---------|--0-6-7-----0-0-|----------------|

G-|--------------------|------------------|------------------|--------------|
D-|--------------------|------------------|------------------|--------------|
A-|-7-------4-5---5----|-7------4--5-4----|-7--------4-5--5--|-7---5--7-5---|
E-|--0-5-6-7-------0-0-|--0-5-6-7---------|--0-5-6-7-----0-0-|--0-----------|

Chorus: (clean bass)
G-|--------------------|-------------------|------------------|
D-|----5-3-5--5-3-5----|----5-----5--------|-5-3-5--5-3-5-----|
A-|--------------------|-------------------|------------------|
E-|-3---------------x3-|--3--3--3---3-3-x3-|---------------x3-|

G-|----------------|------------------|----------------|-----------------|
D-|---5-----5------|-5-3-5--5-3-5-----|---5----5-------|-5-3-5--5-3-5----|
A-|----------------|------------------|----------------|-----------------|
E-|-3--3--3--3--x3-|---------------x3-|-3--3--3--3--x3-|---------------6-|

Verse 3: (with a synthesizer pedal)
G-|------------------|----------------|----------------|------------7---|
D-|------------------|----------------|----------------|----------------|
A-|-7-------4-5---5--|-7------4--5-4--|-7------4-5--5--|-7------5-5---5-|
E-|--0-6-7-------0-0-|--0-6-7---------|--0-6-7-----0-0-|--0-6-7---------|

G-|------------------|----------------|----------------|--------------|
D-|------------------|----------------|----------------|--------------|
A-|-7-------4-5---5--|-7------4--5-4--|-7------4-5--5--|-7---5--7-5---|
E-|--0-6-7-------0-0-|--0-6-7---------|--0-6-7-----0-0-|--0-----------|

G-|------------------|----------------|----------------|----------------|
D-|------------------|----------------|----------------|----------------|
A-|-7-------4-5---5--|-7------4--5-4--|-7------4-5--5--|-7------5-5-5-5-|
E-|--0-6-7-------0-0-|--0-6-7---------|--0-6-7-----0-0-|--0-6-7---------|

G-|------------------|-------------|
D-|------------------|-------------|
A-|-7-------4-5---5--|-7--------5--|
E-|--0-6-7-------0-0-|--0--6-7-----|

Interlude 1: (clean bass)
G-|----------------------------|-------------------------|
D-|----------------------------|-------------------------|
A-|----------------------------|-------------3-----------|
E-|-5-0-3-0-5-0-3-0--5-3-0-3-0-|-5-0-3-0-5-0---5-3-0-3-0-|

G-|----------------------------|-------------------------|
D-|----------------------------|-------------------------|
A-|----------------------------|-------------5-3---------|
E-|-5-0-3-0-5-0-3-0--5-3-0-3-0-|-5-0-3-0-5-0-----5-0-3-0-|
Play intelude 1 two times. Last two bars first time only

Last two bars second time:
G-|-------------------|-------|
D-|-------------------|-------|
A-|--------------5--6-|--7----|
E-|-5-0-3-0-5-3-------|-------|

Verse 4: (with a synthesizer pedal)
G-|--------------------|------------------|------------------|--------------|
D-|--------------------|------------------|------------------|--------------|
A-|-7-------4-5---5----|-7------4--5-4----|-7--------4-5--5--|-7---5--7-5---|
E-|--0-5-6-7-------0-0-|--0-5-6-7---------|--0-5-6-7-----0-0-|--0-----------|

G-|--------------------|------------------|------------------|------|
D-|--------------------|------------------|------------------|------|
A-|-7-------4-5---5----|-7------4--5-4----|-7------4-5--5----|--0---|
E-|--0-5-6-7-------0-0-|--0-5-6-7---------|--0-5-6-7-----0-0-|------|

Interlude 2: (clean bass)
G-|------------9-|----------|---------11-9--|---------|----------9--|
D-|------6/7-----|----------|-----6/7-------|---------|-----6/7-----|
A-|-7------------|--6-------|-7-------------|-6---9---|-7-----------|
E-|--------------|------7---|---------------|-------7-|-------------|

G-|----------|-----------------|-------------|
D-|----------|-----------------|-------------|
A-|--6-------|-----------------|-0h2-2--2-2--|
E-|------7---|-5-0-5-0-5-0-5-0-|-------------|
Play interlude 2 two times. Last two bars first time only

Last two bars second time:  
G-|------------|-----------|
D-|------------|---------4-|
A-|------------|-2--2--5---|
E-|-8---8-10-8-|-----------|

Verse 5: (with a synthesizer pedal)

G-|--------------------|------------------|------------------|--------------|
D-|--------------------|------------------|------------------|--------------|
A-|-7-------4-5---5----|-7------4--5-4----|-7--------4-5--5--|-7---5--7-5---|
E-|--0-5-6-7-------0-0-|--0-5-6-7---------|--0-5-6-7-----0-0-|--0-----------|

G-|--------------------|------------------|------------------|-----------------|
D-|--------------------|------------------|------------------|----5-6----------|
A-|-7-------4-5---5----|-7------4--5-4----|-7------4-5--5----|-7-0----7-0----5-|
E-|--0-5-6-7-------0-0-|--0-5-6-7---------|--0-5-6-7-----0-0-|------------6-7--|

G-|--------------------|------------------|------------------|--------------|
D-|--------------------|------------------|------------------|--------------|
A-|-7-------4-5---5----|-7------4--5-4----|-7--------4-5--5--|-7---5--7-5---|
E-|--0-5-6-7-------0-0-|--0-5-6-7---------|--0-5-6-7-----0-0-|--0-----------|

Outro:
G-|---------------|-------------|------------|------------|-----------|
D-|---------------|-------------|------------|------------|-----------|
A-|-7---7-7-----7-|-6--6---6-6--|------------|-5-5--5---5-|-------6---|
E-|------7-7--7---|------6------|-6---6-6--6-|--------5---|-4--4------|

G-|-------------|--------------|------------------|
D-|-------------|--------------|------------------|
A-|-3---3-3--3--|--------------|------------------|  outro= *7
E-|----3--------|-4-4---4-4-4--|-3-3-3-3-3-3-3-3--|  


		   
AcordesyTabs.com © 2008 Acordes y Tablaturas para guitarra. Tabs and Chords for guitar. Aviso Legal - Contacto
El uso de este sitio está sujeto a la aceptación de los términos y condiciones (33 usuarios online)