tablaturas, partituras y acordes para guitarra
Busca por banda/artista:
 
y/o título de la canción:
A B C D E F G H I J K L M N O P Q R S T U V W X Y Z 0 1 2 3 4 5 6 7 8 9 / Top 100 tabs
Categorías
Usuarios
usuario:
Darse de alta
password:
Artistas más visitados
Publicidad
TOP acordes y tablaturas de System of a down


Blue
de System of a down
Puntúa este acorde/tab:      
(0.3/5)
Reportar este acorde/tab
  Añadir a tus favoritos
  Imprimir
Tabbed by : shavoISMYgod

Im not really spending much time on this tab. I only tabbed it because no one else did 
yet... amazingly. its so frickin easy i dont know why no one ever did. Im not saying 
where each verse starts and ends because this song is so simple. Just listen to it a 
few times and youll get it. The timing is a little screwy but youll get the hang of it.
 
 Intro, Chorus (Played harder)
F|---------------------------------------------------------
C|---------------------------------------------------------
G|---------------------------------------------------------
C|-0-4-4-4-4-4-4-1-1-1-1-1---------------------------------
(thanks for te correction amerkan, i didnt check my tuning 
before i tabbed it i guess, i knew it didnt sound right)

  Verse (first time only)
F|---------------------------------------------------------
C|---------------------------------------------------------
G|-5---5--5----5-5--5--5-5--5-5--5--5-5--------------------
C|---------------------------------------------------------

F|---------------------------------------------------------
C|------2--------2-------2--------2h3p2--------------------
G|-3------33-3------3-3-----3-3----------------------------
C|---------------------------------------------------------

  From now on play verse like this
F|---------------------------------------------------------
C|-----4------4-----4----------4---------------------------
G|-5-----5-5----5-5---5-5--5------5-5-5--------------------
C|---------------------------------------------------------

F|---------------------------------------------------------
C|------2--------2h3p2-------2--------2h3p2----------------
G|-3------33-3---------3-3-----3-3-------------------------
C|---------------------------------------------------------

At the second + third verse start filling the rests and pauses with notes, youll know 
what to do. Or just do what I do and play whatever you want that sounds good.

  Bridge (Let the notes ring a little, I wrote it this way to save space)
F|----------------------------------------------------------------
C|----------------------------------------------------------------
G|-5---5---5---5---3---3---3---3---5---5---5---5---0---0---3---3--
C|----------------------------------------------------------------

F|----------------------------------------------------------------
C|----------------------------------------------------------------
G|-5---5---5-5-5-5-5-5--3---3---3-3-3-3-3-3-----------------------
C|----------------------------------------------------------------

F|---------------------------------------------------------------------
C|---------------------------------------------------------------------
G|-5---5---5-5-5-5-5-5--0--0--0-0-0--3--3--3-3-3----5----5----5----5--
C|---------------------------------------------------------------------

Then back to the Chorus, Verse thingy  

Outro (Play till song ends)
F|---------------------------------------------------------------------
C|---------------------------------------------------------------------
G|-3---1---3---1---3---1---3---1---3---1-------------------------------
C|---------------------------------------------------------------------

If theres any corrections please tell me so i can shove a brick through my head
 because i didnt think anyone could screw this song up.

		   
AcordesyTabs.com © 2008 Acordes y Tablaturas para guitarra. Tabs and Chords for guitar. Aviso Legal - Contacto
El uso de este sitio está sujeto a la aceptación de los términos y condiciones (42 usuarios online)