tablaturas, partituras y acordes para guitarra
Busca por banda/artista:
 
y/o título de la canción:
A B C D E F G H I J K L M N O P Q R S T U V W X Y Z 0 1 2 3 4 5 6 7 8 9 / Top 100 tabs
Categorías
Usuarios
usuario:
Darse de alta
password:
Artistas más visitados
Publicidad
TOP acordes y tablaturas de System of a down


Chick n stu
de System of a down
Puntúa este acorde/tab:      
(0.6/5)
Reportar este acorde/tab
  Añadir a tus favoritos
  Imprimir
Tabbed by: Paul
I figured I'd tab this song since no one can seem to get it right. This tab is close to perfect, about 99%. 
I spent an hour and a half listening to it, so this tab should be near perfect
Ok. Here is System's ONLY bass tuning from low to high: C,G,C,F

Intro/Pre-Verse
F----------------------------
C--11-0-11-0-11-0-11-0-  
G----------------------------
C----------------------------

Verse ("Want a splendid pie, pizza, pizza pie...")
F---------------------------
C---------------------------       
G---------------------------
C--11-0-11-0-11-0-11-0

Bass Solo/Fill 
F---------------------------------------------------------------------
C--11-12-14-12-11-12-14-12-11-12-14-12-11-12-14-12-11
G---------------------------------------------------------------------
C---------------------------------------------------------------------

Chorus ("Need therapy, therapy, advertising causes me...")
F---------------------------------------------------------
C---------------------------------------------------------
G---------------------------------------------------------   repeat this part 1x then play this...
C--11-11-12-11-11-12-11-11-11-11-12-11-12-11

F------------------------------------------------
C------------------------------------------------     the last "10-11-10-11" part looks like it doesn't go there but it does.
G------------------------------------------------     repeat this 1x
C--10-10-8-10-10-8-10-10-8-10-11-10-11

Bridge ("Advertisers got you on the run...")
F------------------------------------------------------------
C------------------------------------------------------------
G------------------------------------------------------------    play this 2x, after the 2nd time go into this...
C--12------11-11-0-11-11-0-11-11-0-11-11-11-12--

F----------------------------------------------------------------------------------
C----------------------------------------------------------------------------------
G----------------------------------------------------------------------------------
C--12----15/--12-----10----10--10----12----12--12----10----10--10---12

Outro
F------------------------------------
C------------------------------------
G------------------------------------
C--0-0-1-0-0-1-0-0-0-0-1-0-1-0

Here's the order you play them in:
Intro/Pre-Verse  x16
Verse  x32
Bass Solo/Fill
Chorus
Intro/Pre-Verse  x8
Verse  x32
Bass Solo/Fill  
Chorus
Bridge
Verse  x32
Bass Solo/Fill
Chorus
Outro  x2

And that's it. Please rate this. Questions, comments, etc... silenced221@msn.com. Enjoy!
		   
AcordesyTabs.com © 2008 Acordes y Tablaturas para guitarra. Tabs and Chords for guitar. Aviso Legal - Contacto
El uso de este sitio está sujeto a la aceptación de los términos y condiciones (32 usuarios online)