tablaturas, partituras y acordes para guitarra
Busca por banda/artista:
 
y/o título de la canción:
A B C D E F G H I J K L M N O P Q R S T U V W X Y Z 0 1 2 3 4 5 6 7 8 9 / Top 100 tabs
Categorías
Usuarios
usuario:
Darse de alta
password:
Artistas más visitados
Publicidad
TOP acordes y tablaturas de System of a down


I-e-a-i-a-i-o
de System of a down
Puntúa este acorde/tab:      
(0.7/5)
Reportar este acorde/tab
  Añadir a tus favoritos
  Imprimir
~Intro – guitar only

      Bridge 1
F ------------------------------------------------------------
C ------------------------------------------------------------
G ------------------------------------------------------------
C --0---0---1p0-0--1p0-0--1p0-0--1p0-0--1p0-0--1p0-0--1p0-0---
      
      Bridge 2
F -------------------------------------
C -------------------------------------
G -------------------------------------
C --1-0-0-0-1-0-0-0-1-0-0-0-0-(0-0-0)--(X3)  ( ) - don't play 3rd time


     Verse (not too sure about this)
F -------------------------------------------------------------------------
C -------------------------------------------------------------------------
G -------------------------------------------------------------------------
C --12-10--12-10--12-10--12-10--12-10--12-10---12-12---12-10--12-10--------
            Or you could play this on the G (A) string: 5-3-5-3-5-3-5-3…
F -------------------------------------------------------------------------
C -------------------------------------------------------------------------
G -------------------------------------------------------------------------
C --12-10--12-10--12-10--12-10--12-10--12-10---12-12---12-10--12-10--------

F ----------------------------------------------------
C ----------------------------------------------------
G ----------------------------------------------------
C ---0---0---1p0-0--1p0-0--1p0-0----------------------

F --------------------------------------------------------------------------
C --------------------------------------------------------------------------
G --------------------------------------------------------------------------
C --12-10--12-10--12-10--12-10--12-10--12-10---12-12---12-10--12-10---------

F ---------------------------------------------------------------------------
C ---------------------------------------------------------------------------
G ---------------------------------------------------------------------------
C --12-10--12-10--12-10--12-10--12-10--12-10---12-12---12-10--12-10----------


F ---------------------------------------------------
C ---------------------------------------------------
G ---------------------------------------------------
C ---0---0---1p0-0--1p0-0--1p0-0---------------------

F -----------------------------------------------------------------------
C -----------------------------------------------------------------------
G ---8-8-8-8-8-8-8-8-8-8-8-8-8-8-8-8-8-8-8-8-8-8-8-8-8-8-8-8-8-8-8-8-----
C -----------------------------------------------------------------------

F ------------------------------------------
C ------------------------------------------
G ------------------------------------------
C ---0---0---1p0-0--1p0-0--1p0-0------------

F ------------------------------------------------------------------------------
C ------------------------------------------------------------------------------
G ------------------------------------------------------------------------------
C --12-10--12-10--12-10--12-10--12-10--12-10---12-12---12-10--12-10-------------

F ------------------------------------------------------------------------------
C ------------------------------------------------------------------------------
G ------------------------------------------------------------------------------
C --12-10--12-10--12-10--12-10--12-10--12-10---12-12---12-10--12-10-------------

F -------------------------------------
C -------------------------------------
G -------------------------------------
C ---0---0---1p0-0--1p0-0--1p0-0-------

       Chorus
F ----------------------------------------------------------------
C ----------------------------------------------------------------
G ----------------------------------------------------------------
C ---0-0-0-0-0---0-3-2-2-2-2-0-0-0---5-5-5-5-3-3-2-2-2-2-0-0-0-0--  (X2)

~Bridge 1~

~Verse~

~Chorus~

~Bridge 1~

~Chorus~

~Bridge 1~


      Break
F -----------------------------------------
C -----------------------------------------
G -----------------------------------------
C ---12---13-12-13-12-13-12-13-12----------  (X16)


~Chorus~

~Bridge 1~

~Chorus~

~Bridge 1~


		   
AcordesyTabs.com © 2008 Acordes y Tablaturas para guitarra. Tabs and Chords for guitar. Aviso Legal - Contacto
El uso de este sitio está sujeto a la aceptación de los términos y condiciones (23 usuarios online)