tablaturas, partituras y acordes para guitarra
Busca por banda/artista:
 
y/o título de la canción:
A B C D E F G H I J K L M N O P Q R S T U V W X Y Z 0 1 2 3 4 5 6 7 8 9 / Top 100 tabs
Categorías
Usuarios
usuario:
Darse de alta
password:
Artistas más visitados
Publicidad
TOP acordes y tablaturas de System of a down


Spider
de System of a down
Puntúa este acorde/tab:      
(0.4/5)
Reportar este acorde/tab
  Añadir a tus favoritos
  Imprimir
INTRO   
C --9--9--7--7--7-----9--9--7--7--7-----10--9--12--10--9-10---9--9--7--7--7----
G -0--0--0--0--0--0-0---0--0--0--0--0-0----0--0---0---0------0--0--0--0--0-----
C -----------------------------------------------------------------------------
F -----------------------------------------------------------------------------
VERSE 1  (X2) 
C -----9--9--7--7--7-----9--9--7--7--7-----10--9--12--10--9-10----9--9--7--7--7-
G -0-----0--0--0--0--0-----------------0------0--0---0---0-----0-0--0--0--0--0--
C ------------------------------------------------------------------------------
F ---0-----------------0-----------------0--------------------------------------
CHORUS 1  Chorus Riff 1 (X1)
C ---------------------------------------------
G ---------------------------------------------
C ---------------------------------------------
F -9-9-9-9-9-9-9-9-9-9-9-9-9-9-9-9-9-9-9-9-9-9--
Chorus Riff 2 (X1)
C --10--9--12--10--9-10-----9--9--7--7--7-
G -0---0--0---0---0-----0-0---0--0--0--0--
C ----------------------------------------
F ----------------------------------------  
Chorus Riff 3 (X1)
C -----------------------------------------------------------------
G -----------------------------------------------------------------
C -----------------------------------------------------------------
F -9-9-9-9-9-9-9-9-9-9-9-9-9-9-9-9-7-7-7-7-7-7-7-7-6-6-6-6-6-6-6-6-
VERSE 2
C --9--9--7--7--7-----9--9--7--7--7-----9--9--7--7--7----9--9--7--7--7-----
G -0--0--0--0--0--0-0---0--0--0--0--0-----0---0---0--0-----0--0--0--0--0---
C -------------------------------------------------------------------------
F ------------------------------------0----------------0-----------------0-

C -10--9--12--10--9-10-----9--9--7--7--7-
G ----0--0---0---0-----0-0---0--0--0--0--
C ---------------------------------------
F ---------------------------------------
CHORUS 2Chorus Riff 1
Chorus Riff 2
Chorus Riff 3

GUITAR SOLO  Solo Riff 1 (X1)
C ---------------------------------------------------
G ---------------------------------------------------
C ---------------------------------------------------
F -6h7-6h7-6h7-6h7-7h8-7h8-7h8-7h8-------------------
C -----------------------------------------------------------
G -----------------------------------------------------------
C -----------------------------------------------------------
F 8-8-8-8-8-8-8-8-11-11-11-11-11-11-11-11--------------------

C ----------------------------------------------------
G ----------------------------------------------------
C ----------------------------------------------------
F -6h7-6h7-6h7-6h7-7h8-7h8-7h8-7h8--------------------

C -----------------------------------------------------------
G -----------------------------------------------------------
C -----------------------------------------------------------
F 8-8-8-8-8-8-8-8-14-14-14-14-14-14-14-14--------------------
Solo Riff 2 (X2)
C -------------------------------------------------------------------------
G -------------------------------------------------------------------------
C -------------------------------------------------------------------------
F -1-1-1-1-1-1-1-1-1-1-1-1-1-1-1-1-2-2-2-2-2-2-2-2-0-0-0-0-0-0-0-0---------

CHORUS 3   
Chorus Riff 1  
Chorus Riff 2  
Chorus Riff 3  
Chorus Riff 2  
Chorus Riff 3

VERSE 3
C --9--9--7--7--7-----9--9--7--7--7-----9--9--7--7--7----9--9--7--7--7-----
G -0--0--0--0--0--0-0---0--0--0--0--0-0---0---0---0--0-0---0--0--0--0--0-0-
C -------------------------------------------------------------------------
F -------------------------------------------------------------------------

C -10--9--12--10--9-10-----9--9--7--7--7-----10--9--12--10--9-10-----9--9--7--7--7-
G ----0--0---0---0---0-0---0--0--0--0--0-0----0--0---0---0-----0-0---0--0--0--0----
C ---------------------------------------------------------------------------------
F ---------------------------------------------------------------------------------


		   
AcordesyTabs.com © 2008 Acordes y Tablaturas para guitarra. Tabs and Chords for guitar. Aviso Legal - Contacto
El uso de este sitio está sujeto a la aceptación de los términos y condiciones (39 usuarios online)