tablaturas, partituras y acordes para guitarra
Busca por banda/artista:
 
y/o título de la canción:
A B C D E F G H I J K L M N O P Q R S T U V W X Y Z 0 1 2 3 4 5 6 7 8 9 / Top 100 tabs
Categorías
Usuarios
usuario:
Darse de alta
password:
Artistas más visitados
Publicidad
TOP acordes y tablaturas de System of a down


War?
de System of a down
Puntúa este acorde/tab:      
(0.4/5)
Reportar este acorde/tab
  Añadir a tus favoritos
  Imprimir
Tabbed By: Matthew Cook

h = hammer-on
p = pull-off
r = let note ring
^ = bend

Song starts with small guitar part.
Bass comes in between 10 and 11 seconds with;

F|--------------------------------------------
C|--------------------------------------------
G|---------------------------8---------9------
C|-0-0-6-00-6-0-0-8-00-8-0-0---006-0-0---006-- 

F|---------------------------------------------
C|---------------------------------------------
G|---------------------------------------------
C|-1-0-1-0--1-0-1-0--1-0-1-0--1-0-1-0-5-0-5-0-- x3


F|----------------------------
C|----------------------------
G|----------------------------
C|-1-0-1-0--1-0-1-0--1-0-1-0--

F|--------------------------------------------
C|--------------------------------------------
G|---------------------------8---------9------
C|-0-0-6-00-6-0-0-8-00-8-0-0---006-0-0---006-- 

F|---------------------------------------------
C|---------------------------------------------
G|---------------------------------------------
C|-1-0-1-0--1-0-1/---1-0-1-0--1-0-1-0-5-0-5-0--

F|----------------------------
C|----------------------------
G|----------------------------
C|-1-0-1-0--1-0-1/---1-0-1-0--

F|--------------------------------------------
C|--------------------------------------------
G|---------------------------8---------9------
C|-0-0-6-00-6-0-0-8-00-8-0-0---006-0-0---006-- x2

F|-------------------------------------------
C|-------------------------------------------
G|----------------------------8-------9------
C|-00-66-00-6-000-88-00-8-0000-0060-00-0060-- x2

Very long guitar part begins now.

The bridge part comes in now.
It plays the low C very fast 64 times, like so;

F|-----------------------------------------------------------------
C|-----------------------------------------------------------------
G|-----------------------------------------------------------------
C|-00000000000000000000000000000000000000000000000000000000000000--

Followed by;

F|--------------------------------------------
C|--------------------------------------------
G|---------------------------8---------9------
C|-0-0-6-00-6-0-0-8-00-8-0-0---006-0-0---006-- x2

Then finally; 

F|-------------------------------------------
C|-------------------------------------------
G|----------------------------8-------9------
C|-00-66-00-6-000-88-00-8-0000-0060-00-0060-- x2

Song ends.

		   
AcordesyTabs.com © 2008 Acordes y Tablaturas para guitarra. Tabs and Chords for guitar. Aviso Legal - Contacto
El uso de este sitio está sujeto a la aceptación de los términos y condiciones (21 usuarios online)