tablaturas, partituras y acordes para guitarra
Busca por banda/artista:
 
y/o título de la canción:
A B C D E F G H I J K L M N O P Q R S T U V W X Y Z 0 1 2 3 4 5 6 7 8 9 / Top 100 tabs
Categorías
Usuarios
usuario:
Darse de alta
password:
Artistas más visitados
Publicidad
TOP acordes y tablaturas de Sum 41


Estás en: Inicio > Letra S > Acordes y tablaturas de Sum 41 > What we're all about
What we're all about
de Sum 41
Puntúa este acorde/tab:      
(0.5/5)
Reportar este acorde/tab
  Añadir a tus favoritos
  Imprimir
Intro

E-2*-

Verse 1 (0:13)
A-------------------2-2--2--4-4-
E-2-2--2--5-5--5----------------
(0:18)
A-------------------2-2-
E-2-2--2--5-5--5-----
(0:22)
A-------------------2-2-
E-2-2--2--5-5--5------
(0:27)
A-------------------2-2-
E-2-2--2--5-5--5------
(0:31)
A-------------------2-2--4-4-
E-2-2--2--5-5--5-------------
~PAUSE~
(0:40)
A-------------------2-2-
E-2-2--2--5-5--5------
(0:43)
E-2-2--
~PAUSE~
(0:45)
A-2--4-4-

Chorus (0:47)

A-------2--2--4-2---
E-2--5------------5-    x8

Verse 2 (1:06)

A------------------2-2-
E-2-2----2--5-5--5-----
(1:11)
A-----------------2-2-
E-2-2--2--5-5--5------
(1:14)
A-----------------2-2--2--4-4-
E-2-2--2--5-5--5--------------
(1:19)
A-----------------2-2-
E-2-2--2--5-5--5------
(1:24)
E-2-2-
~PAUSE~
(1:26)
E-2--5-5-
~PAUSE~
(1:33)
A-----------------2-2-
E-2-2--2--5-5--5------
(1:37)
A-----------------2-2-
E-2-2--2--5-5--5------

Chorus (1:41)

A-------2--2--4-2---
E-2--5------------5-    x8

Bridge (2:04)

A-2----------
E----2--2--5-           x4

E-2*-

Verse (2:18)
A-----------------2-2--2--4-4-
E-2-2--2--5-5--5--------------
(2:22)
A-----------------2-2-
E-2-2--2--5-5--5------
(2:27)
A----------------2-2-
E-2-2--2--5-5--5-----
(2:32)
A-----------------2-2-
E-2-2--2--5-5--5------
(2:36)
A-----------------2-2-
E-2-2----------5------
(2:41)
A----------------2-2-
E-2-2--2--5-5--5-----
(2:45)
A----------------2-2--2--4-4-
E-2-2--2--5-5--5-------------
(2:49)
A----------------2-2-
E-2-2--2--5-5--5-----

Chorus (2:53)


A-------2--2--4-2----
E-2--5------------5--    x16

E-2^-

		   
AcordesyTabs.com © 2008 Acordes y Tablaturas para guitarra. Tabs and Chords for guitar. Aviso Legal - Contacto
El uso de este sitio está sujeto a la aceptación de los términos y condiciones (49 usuarios online)