tablaturas, partituras y acordes para guitarra
Busca por banda/artista:
 
y/o título de la canción:
A B C D E F G H I J K L M N O P Q R S T U V W X Y Z 0 1 2 3 4 5 6 7 8 9 / Top 100 tabs
Categorías
Usuarios
usuario:
Darse de alta
password:
Artistas más visitados
Publicidad
TOP acordes y tablaturas de The ataris


Choices
de The ataris
Puntúa este acorde/tab:      
(0.4/5)
Reportar este acorde/tab
  Añadir a tus favoritos
  Imprimir
> means strum 
/ means slide up 

Intro and verse riff 
G|---------------------------------|
D|---------------------------------|
A|-5>------------------------------|
E|---------0>------3>------5>------| 

Play it twice for the intro and twice for the verse 

Chorus "I've heard it all before..." (listen for the pauses *) 
G|------------------------------------------------------------------------|
D|-----------------------7--------7--------4--------2---------------------|
A|--------------------5-----5--4-----4--2-----2--0-----0------------------|
E|-*-3>-----*-5>------------------------------------------*-3>------5-----| 

Play the verse riff twice, then there's a pause, then play the verse again, 
and then the chorus. 

Bridge (Listen for when to come in) 
G|------------------------------------------------------------------------|
D|------------------------------------------------------------------------|
A|------12-----------------5>----------------------5>---------------------|
E|--5-/--------3>----5>----------0>----3>----5>----------0>----3>----5>---| 
Continued 
G|-------------------------------------------------------------|
D|-------------------------------------------------------------|
A|--5>----------------------5>---------------------/---12>-----|
E|--------0>----3>----5>----------0>----3>-----5>--------------| 

after that play the chorus 

Ending "You think you've found that one..." 
G|--------------------------------|
D|--------------------------------|
A|---5----------------------------|
E|----------0------3-------5------| 

And that's that.
		   
AcordesyTabs.com © 2008 Acordes y Tablaturas para guitarra. Tabs and Chords for guitar. Aviso Legal - Contacto
El uso de este sitio está sujeto a la aceptación de los términos y condiciones (21 usuarios online)