tablaturas, partituras y acordes para guitarra
Busca por banda/artista:
 
y/o título de la canción:
A B C D E F G H I J K L M N O P Q R S T U V W X Y Z 0 1 2 3 4 5 6 7 8 9 / Top 100 tabs
Categorías
Usuarios
usuario:
Darse de alta
password:
Artistas más visitados
Publicidad
TOP acordes y tablaturas de The ataris


Estás en: Inicio > Letra T > Acordes y tablaturas de The ataris > I remember you
I remember you
de The ataris
Puntúa este acorde/tab:      
(0.6/5)
Reportar este acorde/tab
  Añadir a tus favoritos
  Imprimir
Tabbed by: Heatherrr


Intro
G|--------------------|
D|--------------------|
A|-7/3-55555555-3-3-3-|
E|--------------------|

Verse
G|-------------------|
D|-------------------|
A|----------33333333-| x3
E|-33333333----------|

Pre-Chorus
G|----------------------------------|
D|----------------------------------|
A|-55555555-33333333-55555555-3-3-3-|
E|----------------------------------|

Chorus
G|----------------------------------------------------------------|
D|----------------------------------------------------------------|
A|----------55555555----------3-3-3----------55555555----------3~-|
E|-33333333----------00000000-------33333333----------00000000----|

Post-Chorus
G|----------------------------------|
D|----------------------------------|
A|----------33333333----------3-3-3-|
E|-33333333----------33333333-------|

Verse
G|-------------------|
D|-------------------|
A|----------33333333-| x3
E|-33333333----------|

Pre-Chorus
G|----------------------------------|
D|----------------------------------|
A|-55555555-33333333-55555555-3-3-3-|
E|----------------------------------|

Chorus
G|----------------------------------------------------------------|
D|----------------------------------------------------------------|
A|----------55555555----------3-3-3----------55555555----------3~-|
E|-33333333----------00000000-------33333333----------00000000----|

Bridge
G|------------------------------------------------------------------|
D|------------------------------------------------------------------|
A|-----------------------333-------333-------333---5555555555555555-|
E|-3333333333333333--5-5-----5-0-0-----0-5-5-----0------------------|

Solo
G|--------x3---------|----------------|
D|-------------------|----------------|
A|----------33333333-|-55555555-3-3-3-|
E|-33333333----------|----------------|
	   


Verse
G|-------------------|
D|-------------------|
A|----------33333333-| x5
E|-33333333----------|

G|------------------------------------|
D|------------------------------------|
A|-55555555-33333333-55555555---------|
E|------------------------------------|

End
G|----------------------------------|
D|----------------------------------|
A|----------55555555----------3-3-3-|
E|-33333333----------00000000-------|


G|------------------------------------------|
D|------------------------------------------|
A|----------55555555----------3-3-3---3-3-3-|
E|-33333333----------00000000---------------|


G|--------------------------------------------------------------------|
D|--------------------------------------------------------------------|
A|----------55555555----------33333333-----------55555555----------3~-|
E|-33333333----------00000000-----------33333333----------00000000----|
		   
AcordesyTabs.com © 2008 Acordes y Tablaturas para guitarra. Tabs and Chords for guitar. Aviso Legal - Contacto
El uso de este sitio está sujeto a la aceptación de los términos y condiciones (26 usuarios online)