tablaturas, partituras y acordes para guitarra
Busca por banda/artista:
 
y/o título de la canción:
A B C D E F G H I J K L M N O P Q R S T U V W X Y Z 0 1 2 3 4 5 6 7 8 9 / Top 100 tabs
Categorías
Usuarios
usuario:
Darse de alta
password:
Artistas más visitados
Publicidad
TOP acordes y tablaturas de The ataris


Estás en: Inicio > Letra T > Acordes y tablaturas de The ataris > Fast times at drop out high school
Fast times at drop out high school
de The ataris
Puntúa este acorde/tab:      
(0.5/5)
Reportar este acorde/tab
  Añadir a tus favoritos
  Imprimir
Intro - No bass
			       End of 2nd	
Verse x4		       verse only
G|----------------------------|----------|
D|----------------------------|----------|
A|--------5>----1>--3>--------|----------|
E|--1>------------------1>----|---1-0----|

Chorus 1 - Single Notes Here Unless Indicated
G|----------------------------------------------------------------------------|
D|----------------------------------------------------------------------------|
A|--0~-------------1~---------------------------------------------------------|
E|--------------------------------------1~------------------3~----------------|

G|----------------------------------------------------------------------------|
D|----------------------------------------------------------------------------|
A|--5~-----------------1~------------------------------------3~---------------|
E|---------------------------------------1~-----------------------------------|

G|----------------------------------------------------------------------------|
D|----------------------------------------------------------------------------|
A|--1>-----------------------------3>---5>--------------3>--------------------|
E|----------------------------------------------------------------------------|

G|-----------------------------------------|
D|-----------------------------------------|
A|--1>----3~~------------------------------|
E|-----------------------------1>----------|

Verse

Chorus 2 - Single Notes Again

G|---------------------------------------------------------------------------------------
D|---------------------------------------------------------------------------------------
A|--5~------------------------------------------------1~---------------------------------
E|-----------------------------1~-----------------------------------------------------1~-
  
G|-------------------------------|
D|-------------------------------|
A|-------------------------------|
E|--0~---------------------------|

G|---------------------------------------------------------------------------------------|
D|---------------------------------------------------------------------------------------|
A|--5~----------------------------------1~-----------------------------------------------|
E|-------------------1~-------------------------------------------1~----------------0~---|

G|------------------------------------------------------|
D|------------------------------------------------------|
A|--1>-------------------3>--5>------------3>-----------|
E|------------------------------------------------------|

G|-------------------------------------------|
D|-------------------------------------------|
A|--1>----------------3~~--------------------|
E|-----------------------------------1-------|


Bridge
G|----------------------------|
D|----------------------------|
A|--------------1>>-----------|
E|--1>>-----------------------| x2

Outro
G|----------------------------|
D|----------------------------|
A|--5>----3>----1>------------|
E|---------------------1>-----| x3

G|----------------------------|
D|----------------------------|
A|--5>----3>----1>------------|
E|---------------------1~-----|
		   
AcordesyTabs.com © 2008 Acordes y Tablaturas para guitarra. Tabs and Chords for guitar. Aviso Legal - Contacto
El uso de este sitio está sujeto a la aceptación de los términos y condiciones (21 usuarios online)