tablaturas, partituras y acordes para guitarra
Busca por banda/artista:
 
y/o título de la canción:
A B C D E F G H I J K L M N O P Q R S T U V W X Y Z 0 1 2 3 4 5 6 7 8 9 / Top 100 tabs
Categorías
Usuarios
usuario:
Darse de alta
password:
Artistas más visitados
Publicidad
TOP acordes y tablaturas de The ataris


Estás en: Inicio > Letra T > Acordes y tablaturas de The ataris > Here in this diary
Here in this diary
de The ataris
Puntúa este acorde/tab:      
(0.3/5)
Reportar este acorde/tab
  Añadir a tus favoritos
  Imprimir
Verse
G:-------------------------------------------------------------------
D:-------------------------------------------------------------------
A:-------------------6666666666666666----------------4444444444444444
E:-9/1111111111111111----------------4444444444444444----------------

-----------------------------------------------------------------|
-----------------------------------------------------------------|
888888888888888866666666666666664-4--4444-4444444-4--4444-444444-|x1
-----------------------------------------------------------------|

G:-----------------------------------------------------------------
D:-----------------------------------------------------------------
A:-----------------6666666666666666----------------4444444444444444
E:-1111111111111111----------------4444444444444444----------------

-----------------------------------------------------------------|
-----------------------------------------------------------------|
888888888888888866666666666666664-4--4444-4444444-4--4444-444444-|x1
-----------------------------------------------------------------|

Pre Chorus
G:----------------------------------|
D:----------------------------------|
A:-1-1--1111-1111114-4--4444-444444-|x1
E:----------------------------------|

Chorus
G:------------------------------------------------------------------|
D:-3-3333331-111111-------------------------------------------------|
A:-------------------------4-4444448-8888886-6666664-44444444444444-|x1
E:-----------------4-444444-----------------------------------------|

G:------------------------------------------------------------------|
D:-3-3333331-111111-------------------------------------------------|
A:-------------------------4-4444448-8888886-666666-----------------|x1
E:-----------------4-444444-----------------------------------------|

Verse

Pre Chorus

Chorus

Bridge
G:------------------------------------------------------------------|
D:------------------------------------------------------------------|
A:---------------------44~~~~~--------------------------------------|x1
E:------------------------------------------------------------------|

G:--------------------------------------------------------------------|
D:--------------------------------------------------------------------|
A:-------------------666666666666666644444444444444444444444444444444-|x1
E:-9/1111111111111111-------------------------------------------------|

Chorus
G:------------------------------------------------------------------|
D:-3-3333331-111111-------------------------------------------------|
A:-------------------------4-4444448-8888886-6666664-44444444444444-|x1
E:-----------------4-444444-----------------------------------------|

G:------------------------------------------------------------------|
D:-----3-3-1-111111-------------------------------------------------|
A:-------------------------4-4444448-8888886-6666664-44444444444444-|x1
E:-----------------4-444444-----------------------------------------|

G:------------------------------------------------------------------|
D:-3-3333331-111111-------------------------------------------------|
A:-------------------------443311448-8888886-6666664-44444444444444-|x1
E:-----------------4-444444-----------------------------------------|

G:------------------------------------------------------------------|
D:-3-3333331-111111-------------------------------------------------|
A:-------------------------443311448-8888886-6666664~~~~~~~---------|x1
E:-----------------4-444444-----------------------------------------|
		   
AcordesyTabs.com © 2008 Acordes y Tablaturas para guitarra. Tabs and Chords for guitar. Aviso Legal - Contacto
El uso de este sitio está sujeto a la aceptación de los términos y condiciones (31 usuarios online)