tablaturas, partituras y acordes para guitarra
Busca por banda/artista:
 
y/o título de la canción:
A B C D E F G H I J K L M N O P Q R S T U V W X Y Z 0 1 2 3 4 5 6 7 8 9 / Top 100 tabs
Categorías
Usuarios
usuario:
Darse de alta
password:
Artistas más visitados
Publicidad
TOP acordes y tablaturas de The ataris


Estás en: Inicio > Letra T > Acordes y tablaturas de The ataris > My so called life
My so called life
de The ataris
Puntúa este acorde/tab:      
(0.7/5)
Reportar este acorde/tab
  Añadir a tus favoritos
  Imprimir
intro: 
  1   2   3   4 
G-|----------------|----------------|----------------|---------------- 
D-|----------------|----------------|----------------|---------------- 
A-|3---------------|--------2--3----|----------------|---------------- 
E-|----------------|--------------0-|1---------------|3--------------- 

G-|----------------|----------------|----------------|---------------- 
D-|----------------|----------------|----------------|---------------- 
A-|3-3333333-333333|3-3333332-23-3--|----------------|---------------- 
E-|----------------|--------------0-|1-1111111-111111|3-33333333333333 


verse 1: 
G-|----------------|----------------|----------------|---------------- 
D-|----------------|----------------|----------------|---------------- 
A-|3-3333333333333-|----------------|----------------|3-3333333333333- 
E-|----------------|1-1111111111111-|3-3333333333333-|---------------- 

G-|----------------|----------------|----------------|---------------- 
D-|----------------|----------------|----------------|---------------- 
A-|3-3333333333333-|----------------|----------------|3-3333333-333333 
E-|----------------|1-1111111111111-|3-3333331-111111|---------------- 

G-|----------------|----------------|----------------|---------------- 
D-|----------------|----------------|----------------|---------------- 
A-|0-0000000-000000|----------------|3-3333333-333333|---------------- 
E-|----------------|1-1111111-111111|----------------|3-3333333-333333 

G-|----------------|----------------|----------------|---------------- 
D-|----------------|----------------|----------------|---------------- 
A-|0-0000000-000000|----------------|----------------|---------------- 
E-|----------------|1-1111111-111111|3-3333333-333333|3-3333333-333333 


chorus: 
G-|----------------|----------------|----------------|---------------- 
D-|----------------|----------------|----------------|---------------- 
A-|3-3333333-333333|----------------|----------------|3-3333333-333333 
E-|----------------|1-1111111-111111|3-3333333-333333|---------------- 

G-|----------------|----------------|----------------|---------------- 
D-|----------------|----------------|----------------|---------------- 
A-|3-3333333-333333|----------------|----------------|3-33333333333333 
E-|----------------|1-1111111-111111|3-3333331-111111|---------------- 


outro: 
G-|----------------|----------------|----------------|---------------- 
D-|----------------|----------------|----------------|---------------- 
A-|3333333333333333|----------------|----------------|3333333333333333 
E-|----------------|1111111111111111|3333333333333333|---------------- 

G-|----------------|----------------|----------------|---------------- 
D-|----------------|----------------|----------------|---------------- 
A-|3333333333333333|----------------|----------------|3-33333333333333 
E-|----------------|1111111111111111|3-3333331-111111|---------------- 

   1   2   3    (from here it's in 3/4 and at a bpm of about 115) 
G-|----------------|------------|------------|------------ 
D-|----------------|------------|------------|------------ 
A-|----------------|3-m---3-3-2-|0---0-0-0-0-|------------ 
E-|3-3333331-111111|------------|------------|1-1-1-1-1-1- 

G-|------------|------------|------------|------------ 
D-|------------|------------|----2-------|------------ 
A-|------------|--7-----5---|--3-----2-5-|------------ 
E-|3-3-3-3-3-3-|8---8-7---7-|5-----3-----|1---1-1-1-1- 

G-|------------|------------|------------|------------ 
D-|------------|------------|------------|------------ 
A-|------------|3-----------|------------|------------ 
E-|3-----------|------------|------------|------------
		   
AcordesyTabs.com © 2008 Acordes y Tablaturas para guitarra. Tabs and Chords for guitar. Aviso Legal - Contacto
El uso de este sitio está sujeto a la aceptación de los términos y condiciones (39 usuarios online)