tablaturas, partituras y acordes para guitarra
Busca por banda/artista:
 
y/o título de la canción:
A B C D E F G H I J K L M N O P Q R S T U V W X Y Z 0 1 2 3 4 5 6 7 8 9 / Top 100 tabs
Categorías
Usuarios
usuario:
Darse de alta
password:
Artistas más visitados
Publicidad
TOP acordes y tablaturas de The ataris


Boxcar
de The ataris
Puntúa este acorde/tab:      
(0.2/5)
Reportar este acorde/tab
  Añadir a tus favoritos
  Imprimir
  x3
G|---------------------------------------------------------------------------|
D|---------------------------------------------------------------------------|
A|----3-3---3--3---3-35-53---------------------------------------------------|
E|-3-3---3-3----3-3----------------------------------------------------------|
  
  x1
G|---------------------------------------------------------------------------|
D|---------------------------------------------------------------------------|
A|-----2xxx3xxxxxxx----2xxx3xxxxxxx------------------------------------------|
E|-3xxx------------3xxx------------------------------------------------------|

  x1
G|---------------------------------------------------------------------------|
D|---------------------------------------------------------------------------|
A|----3-3---3--3----2xxx3xxxxxxxx-7xxxxxxx5xxxxxxx---------------------------|
E|-3-3---3-3----3xxx---------------------------------------------------------|

  x1
G|---------------------------------------------------------------------------|
D|---------------------------------------------------------------------------|
A|-----2222333355553---------------------------------------------------------|
E|-3333----------------------------------------------------------------------|

 Then there is a rest where it is only the guitars, then u play this..

  x2
G|---------------------------------------------------------------------------|
D|---------------------------------------------------------------------------|
A|----3-3---3--3---3-35-53---------------------------------------------------|
E|-3-3---3-3----3-3----------------------------------------------------------|

the ataris rock.!!! i hope u guys injoy this,. this is my first tab.
		   
AcordesyTabs.com © 2008 Acordes y Tablaturas para guitarra. Tabs and Chords for guitar. Aviso Legal - Contacto
El uso de este sitio está sujeto a la aceptación de los términos y condiciones (22 usuarios online)