tablaturas, partituras y acordes para guitarra
Busca por banda/artista:
 
y/o título de la canción:
A B C D E F G H I J K L M N O P Q R S T U V W X Y Z 0 1 2 3 4 5 6 7 8 9 / Top 100 tabs
Categorías
Usuarios
usuario:
Darse de alta
password:
Artistas más visitados
Publicidad
TOP acordes y tablaturas de The ataris


Estás en: Inicio > Letra T > Acordes y tablaturas de The ataris > Broken promise ring
Broken promise ring
de The ataris
Puntúa este acorde/tab:      
(0.3/5)
Reportar este acorde/tab
  Añadir a tus favoritos
  Imprimir
h means hammer on

Intro (Listen for timing and such) 
G|------------
D|------------
A|------------
E|--5>-------- 
Play that note until the guitar comes in with it's fancy shmancy stuff, and then do this: 
G|-------------------------------------------------------------------|
D|-------------------------------------------------------------------|
A|-----------------------------5>--------------------------------5---|
E|--5>-------4>-------2>---------------5>-------4>-------2>----------| 
Then after the pause and drum roll, do this: 
G|----------------------------------
D|----------------------------------
A|-----------7>-------9>-------5>---
E|--5>------------------------------ 
Play that twice, then the words come in 

Verse riff "I really wanna call you..." 
G|--------------------------------------|
D|--------------------------------------|
A|-----------7>-------9>--------5>------|
E|--5>----------------------------------| 

Chorus "I guess i'm not pre..." (watch out for those pauses, this one's kind of tricky) 
G|------------------------------------------------------------------|
D|------------------------------------------------------------------|
A|--2>-----4---5>------------------------5>-----2>-----4---5>--7>---|
E|---------------------5>----3>--2--2--2----------------------------| 

Play the verse, and then the chorus. 

Bridge "I guess that i'm wrong, for falling in love..." (Hold these notes out) 
G|-----------------------------------------------------------------------
D|-----------------------------------------------------------------------
A|-----------------------5----9h10-9-7-5-----------------------5----/7---
E|--5------4------2-----------------------5------4------2---------------- 
continued: 
G|--------------------------------------------------------------
D|--------------------------------------------------------------
A|-----------------------5----5/7--5--4--------------------5>---
E|--5------4------2----------------------5------4-----2--------- 

Outro (Guitar soloing butt kicking part) 
G|---------------------------------------------------------------------------
D|---------------------------------------------------------------------------
A|-----------------------5>-----------------------------5>---/7-7-7-5--5-4---
E|--5>-----4>-----2>-------------5>------4>------2>-------------------------- 
continued (Listen for the pause) 
G|-------------------------------------------------------------------
D|-------------------------------------------------------------------
A|-----------------------5--5-5----5--5-5-----------------------5>---
E|--5>-----4>-----2>-----------------------5>-----4>-----2>---------- 
then play this riff to the end: 
G|----------------------------
D|----------------------------
A|-----------------------5>---
E|--5>-----4>-----2>---------- 
and then end with: 
G|---------------|
D|---------------|
A|---------------|
E|---5-----------| 

This is one of my favorites, cause i know what Kris is talking about.
		   
AcordesyTabs.com © 2008 Acordes y Tablaturas para guitarra. Tabs and Chords for guitar. Aviso Legal - Contacto
El uso de este sitio está sujeto a la aceptación de los términos y condiciones (13 usuarios online)