tablaturas, partituras y acordes para guitarra
Busca por banda/artista:
 
y/o título de la canción:
A B C D E F G H I J K L M N O P Q R S T U V W X Y Z 0 1 2 3 4 5 6 7 8 9 / Top 100 tabs
Categorías
Usuarios
usuario:
Darse de alta
password:
Artistas más visitados
Publicidad
TOP acordes y tablaturas de The ataris


Estás en: Inicio > Letra T > Acordes y tablaturas de The ataris > Teenage riot
Teenage riot
de The ataris
Puntúa este acorde/tab:      
(0.3/5)
Reportar este acorde/tab
  Añadir a tus favoritos
  Imprimir
Tabbed by Michael Kelly

Play in this order and listen out to the song for the correct timing:

RIFF A x 1
RIFF B x 1
RIFF A x 2
RIFF C x 1
RIFF A x 1
RIFF B x 1
RIFF A x 2
RIFF C x 1
RIFF D x 4
RIFF A x 1
RIFF B x 1

Start with a slide from the 8th to the 3rd fret on the A string (listen 
for timing/style) 
---------------------------------------

RIFF A (Intro/Verse/Chorus)
G|--------------------------------| 
D|--------2--5--2-----2--5--2-----| 
A|-----3-----------3--------------| 
E|--------------------------------| 

G|--------------------------------| 
D|--------6--9--6--9--6-----------| 
A|-----7-----------------7--5-----| 
E|--------------------------------| 

G|--------------------------------| 
D|--------------------------------| 
A|--------4--7--4-----5--3--2-----| 
E|-----5-----------3--------------| 

G|--------------------------------| 
D|-----------3--2--3--2-----------| 
A|--------3--------------3--2-----| 
E|-----1--------------------------| 

---------------------------------------

RIFF B (Intro/Verse/Chorus)
G|--------------------------------| 
D|--------2--5--2-----2--5--2-----| 
A|-----3-----------3--------------| 
E|--------------------------------|


G|-----------------9--7--5--4-----| 
D|--------6--9--6-----------------| 
A|-----7--------------------------| 
E|--------------------------------| 


G|------------------------------------------| 
D|------------------------------------------| 
A|------------------------------------------| 
E|-----5------5-3----3-1-1-1--4-4-4-3-3-----| 

---------------------------------------

RIFF C (Pre-Chorus)
G|-------------------------------------------------| 
D|-------------------------------------------------| 
A|-----------------3-3-3-------------333333-3------|
E|-----0-0--0h1-1-1------2-2-1-1-4-3-------3-3-----| 


G|-------------------------------------------| 
D|-------------------------------------------| 
A|-----------------3-3-3---------------------|
E|-----0-0--0h1-1-1------2-2-1-1-1-1-1-3-----| 

-----------------------------------------

RIFF D (Breakdown,timing varies) 
G|----------------------------------------------------------| 
D|----------------------------------------------------------| 
A|----------------------------------------------------------| 
E|---5-5-5-5-4-4-4-4-3-3-3-3-2-2-2-2-1-1-1-1-1-1-1--3-3-----| 


==============================================================================
		   
AcordesyTabs.com © 2008 Acordes y Tablaturas para guitarra. Tabs and Chords for guitar. Aviso Legal - Contacto
El uso de este sitio está sujeto a la aceptación de los términos y condiciones (24 usuarios online)