tablaturas, partituras y acordes para guitarra
Busca por banda/artista:
 
y/o título de la canción:
A B C D E F G H I J K L M N O P Q R S T U V W X Y Z 0 1 2 3 4 5 6 7 8 9 / Top 100 tabs
Categorías
Usuarios
usuario:
Darse de alta
password:
Artistas más visitados
Publicidad
TOP acordes y tablaturas de The ataris


Estás en: Inicio > Letra T > Acordes y tablaturas de The ataris > Your boyfriend sucks
Your boyfriend sucks
de The ataris
Puntúa este acorde/tab:      
(0.4/5)
Reportar este acorde/tab
  Añadir a tus favoritos
  Imprimir
Quite a sad song indeed.

>means strum a whole bunch 

Verse (Wait for the guitar) "You're sitting with your best friend..." 
G|---------------------------------------
D|---------------------------------------
A|----------4>------2>-------------------
E|--0>--------------------2--2-4--4-5>--- 
play that as needed 

Chorus "And i'm still here..." 
G|----------------------------------------------------------------------|
D|----------------------------------------------------------------------|
A|---------------------------------------------------------2>------/6---|
E|-2-2--2-2--4-4--4-4--5>--------------2-2--2-2--4-4--4-4---------------| 

Play the verse, then the chorus again, and then here comes the cool part 

The cool part at the end with the "Lock your door" sample (The timing is 
kind of tricky, just listen to it, you kind of follow the drums) 
G|-------------------------------
D|-------------------------------
A|-------------------------------
E|-0--0-0-0--0-0--0-0--0-0-0-0--- 
Play that 4 times, then 
G|--------------------------------------------------------
D|--------------------------------------------------------
A|----------------4-4-4---2-2-4--0--0-0-0--0-0--0-0-0-0---
E|-0--0-0-0--0-0------------------------------------------ 
Play that 4 times, then 
G|--------------------------------------
D|--------------------------------------
A|--------------4-4-4---2-2-4--0--------
E|-0------------------------------------ 
Play that 4 times, and end with an open A string
		   
AcordesyTabs.com © 2008 Acordes y Tablaturas para guitarra. Tabs and Chords for guitar. Aviso Legal - Contacto
El uso de este sitio está sujeto a la aceptación de los términos y condiciones (10 usuarios online)