tablaturas, partituras y acordes para guitarra
Busca por banda/artista:
 
y/o título de la canción:
A B C D E F G H I J K L M N O P Q R S T U V W X Y Z 0 1 2 3 4 5 6 7 8 9 / Top 100 tabs
Categorías
Usuarios
usuario:
Darse de alta
password:
Artistas más visitados
Publicidad
TOP acordes y tablaturas de The cranberries


Estás en: Inicio > Letra T > Acordes y tablaturas de The cranberries > Yesterday is gone
Yesterday is gone
de The cranberries
Puntúa este acorde/tab:      
(0.7/5)
Reportar este acorde/tab
  Añadir a tus favoritos
  Imprimir
G --------------------------------------------------------------------
D --------------------------------------------------------------------
A -------------------2-4-----------------2-1-2---2---------2-4--------
E ---------------4-------4-2---4-2-0---4-----------2-2-4-------4-2---4

G --------------------------------------------------------------------
D --------------------------------------------------------------------
A ---------2-1-2---2---------2-4-----------------2-1-2---2---------2-4
E -2-0---4-----------2-2-4-------4-2---4-2-0---4-----------2-2-4------

G --------------------------------------------------------------------
D --------------------------------------------------------------------
A -----------------2-1-2---2---------2-4-----------------2-1-2---2----
E -4-2---4-2-0---4-----------2-2-4-------4-2---4-2-0---4-----------2-2

G --------------------------------------------------------------------
D --------------------------------------------------------------------
A -----2-4-----------------2-1-2---2---------2-4-----------------2-1-2
E -4-------4-2---4-2-0---4-----------2-2-4-------4-2---4-2-0---4------

G --------------------------------------------------------------------
D --------------------------------------------------------------------
A ---2---------2-4-----------------2-1-2---2---------2-4--------------
E -----2-2-4-------4-2---4-2-0---4-----------2-2-4-------4-2---4-2-0--

G --------------------------------------------------------------------
D --------------------------------------------------------------------
A ---2-1-2---2---------2-4-----------------2-1-2---2---------2-4------
E -4-----------2-2-4-------4-2---4-2-0---4-----------2-2-4-------4-2--

G --------------------------------------------------------------------
D --------------------------------------------------------------------
A -----------2-1-2---2---------2-4-----------------2-1-2---2---------2
E -4-2-0---4-----------2-2-4-------4-2---4-2-0---4-----------2-2-4----

G --------------------------------------------------------------------
D --------------------------------------------------------------------
A -4-----------------2-1-2---2---------2-4-----------------2-1-2---2--
E ---4-2---4-2-0---4-----------2-2-4-------4-2---4-2-0---4-----------2

G --------------------------------------------------------------------
D --------------------------------------------------------------------
A -------2-4-----------------2-1-2---2---------2-4-----------------2-1
E -2-4-------4-2---4-2-0---4-----------2-2-4-------4-2---4-2-0---4----

G --------------------------------------------------------------------
D --------------------------------------------------------------------
A -2---2---------2-4-----------------2-1-2---2---------2-4------------
E -------2-2-4-------4-2---4-2-0---4-----------2-2-4-------4-2---4-2-0

G --------------------------------------------------------------------
D --------------------------------------------------------------------
A -----2-1-2---2---------2-4-----------------2-1-2---2---------2-4----
E ---4-----------2-2-4-------4-2---4-2-0---4-----------2-2-4-------4-2

G --------------------
D --------------------
A -------------2-1-2--
E ---4-2-0---4--------

		   
AcordesyTabs.com © 2008 Acordes y Tablaturas para guitarra. Tabs and Chords for guitar. Aviso Legal - Contacto
El uso de este sitio está sujeto a la aceptación de los términos y condiciones (48 usuarios online)