tablaturas, partituras y acordes para guitarra
Busca por banda/artista:
 
y/o título de la canción:
A B C D E F G H I J K L M N O P Q R S T U V W X Y Z 0 1 2 3 4 5 6 7 8 9 / Top 100 tabs
Categorías
Usuarios
usuario:
Darse de alta
password:
Artistas más visitados
Publicidad
TOP acordes y tablaturas de The cranberries


Estás en: Inicio > Letra T > Acordes y tablaturas de The cranberries > Just my imagination
Just my imagination
de The cranberries
Puntúa este acorde/tab:      
(0.4/5)
Reportar este acorde/tab
  Añadir a tus favoritos
  Imprimir
G --------------------------------------------------------------------
D ----------------------------------------------0-3-3-3---3-3-0-------
A --------------------------------1-1-1---1-1-3-----------------1-3-3-
E ----------------------3-3---1-3-------------------------------------

G --------------------------------------------------------------------
D ------------------------------------0-3-3-3---3-3-0-----------------
A 3---3-3-3-1-----------1-1-1---1-1-3-----------------1-3-3-3---3-3-3-
E ------------3-3---1-3-----------------------------------------------

G ----------------------------------------0-3-5-5-5---5-5-3---0-0-0---
D --------------------------0-3-3-3---3-3-------------------3---------
A 1-----------1-1-1---1-1-3-------------------------------------------
E --3-3---1-3---------------------------------------------------------

G ------------------------------------0-3-5-5-5---5-5-3---0-0---------
D 3-3-1-----------------0-3-3-3---3-3-------------------3-------3-1---
A ------3-1-1-1---1-1-3---------------------------------------------3-
E --------------------------------------------------------------------

G ----------------------------0-3-5-5-5---5-5-3---0-0-0---------------
D --------------0-3-3-3---3-3-------------------3---------3-3-1-------
A 1-1-1---1-1-3-------------------------------------------------3-1-1-
E --------------------------------------------------------------------

G --------------------------------------------------------------------
D ----------0-3-3-3---3-3-0-------------------------------------------
A 1---1-1-3-----------------1-3-3-3---3-3-3-1-----------1-1-1---1-1-3-
E --------------------------------------------3-3---1-3---------------

G --------------------------------------------------------------------
D 0-3-3-3---3-3-0-------------------------------------------0-3-3-3---
A ----------------1-3-3-3---3-3-3-1-----------1-1-1---1-1-3-----------
E ----------------------------------3-3---1-3-------------------------

G ----0-3-5-5-5---5-5-3---0-0-0---------------------------------------
D 3-3-------------------3---------3-3-1-----------------0-3-3-3---3-3-
A --------------------------------------3-1-1-1---1-1-3---------------
E --------------------------------------------------------------------

G 0-3-5-7-5-5---5-5-3---0-0-----------------------------------0-3-5-7-
D --------------------3-------3-----------------0-3-3-3---3-3---------
A ------------------------------3-1-1-1---1-1-3-----------------------
E --------------------------------------------------------------------

G 5-5---5-5-3---0-0-------------------------------------0-3-5-7-5-5---
D ------------3-------3-1-----------------0-3-3-3---3-3---------------
A ------------------------3-1-1-1---1-1-3-----------------------------
E --------------------------------------------------------------------

G 5-5-3---0-0---------------------------------------------------------
D ------3-------3-1-----------------0-3-3-3---3-3-0-------------------
A ------------------3-1-1-1---1-1-3-----------------1-3-3-3---3-3-3-1-
E --------------------------------------------------------------------

G --------------------------------------------------------------------
D ------------------------0-3-3-3---3-3-0-----------------------------
A ----------1-1-1---1-1-3-----------------1-3-3-3---3-3-3-1-----------
E 3-3---1-3-------------------------------------------------3-3---1-3-

G ----------------------------0-3-5-5-5---5-5-3---0-0-0---------------
D --------------0-3-3-3---3-3-------------------3---------3-3-1-------
A 1-1-1---1-1-3-------------------------------------------------3-1-1-
E --------------------------------------------------------------------

G ------------------------0-3-5-7-5-5---5-5-3---0-0-------------------
D ----------0-3-3-3---3-3---------------------3-------3-1-------------
A 1---1-1-3-----------------------------------------------3-1-1-1---1-
E --------------------------------------------------------------------

G ------------------0-3-5-7-5-5---5-5-3---0-0-------------------------
D ----0-3-3-3---3-3---------------------3-------3-1-----------------0-
A 1-3-----------------------------------------------3-1-1-1---1-1-3---
E --------------------------------------------------------------------

G ------------0-3-5-7-5-5---5-5-3---0-0-------------------------------
D 3-3-3---3-3---------------------3-------3-1-----------------0-3-3-3-
A --------------------------------------------3-1-1-1---1-1-3---------
E --------------------------------------------------------------------

G ----------------------------------------------------------------0-3-
D --3-3-0-------------------------------------------0-3-3-3---3-3-----
A --------1-3-3-3---3-3-3-1-----------1-1-1---1-1-3-------------------
E --------------------------3-3---1-3---------------------------------

G 5-7-5-5---5-5-3---0-0-----------------------------------------------
D ----------------3-------3-1-----------------0-3-3-3---3-3-0---------
A ----------------------------3-1-1-1---1-1-3-----------------1-3-3-3-
E --------------------------------------------------------------------

G --------------------------------------------------------------------
D ----------------------------------0-3-3-3---3-3-0-------------------
A --3-3-3-1-----------1-1-1---1-1-3-----------------1-3-3-3---3-3-3-1-
E ----------3-3---1-3-------------------------------------------------

G --------------------------------------------------------------------
D ------------------------0-3-3-3---3-3-0-----------------------------
A ----------1-1-1---1-1-3-----------------1-3-3-3---3-3-3-1-----------
E 3-3---1-3-------------------------------------------------3-3---1-3-

G ---
D ---
A 1--
E ---


		   
AcordesyTabs.com © 2008 Acordes y Tablaturas para guitarra. Tabs and Chords for guitar. Aviso Legal - Contacto
El uso de este sitio está sujeto a la aceptación de los términos y condiciones (19 usuarios online)