tablaturas, partituras y acordes para guitarra
Busca por banda/artista:
 
y/o título de la canción:
A B C D E F G H I J K L M N O P Q R S T U V W X Y Z 0 1 2 3 4 5 6 7 8 9 / Top 100 tabs
Categorías
Usuarios
usuario:
Darse de alta
password:
Artistas más visitados
Publicidad
TOP acordes y tablaturas de The cure


Lovecats
de The cure
Puntúa este acorde/tab:      
(0.3/5)
Reportar este acorde/tab
  Añadir a tus favoritos
  Imprimir
introdução


E-3-5----3-|-1----3-|5----3--|1-----3-|


figura 1--começo e versos, repetir o necessario


G----------------|---------------|
D----------------|---------------|
A----7--5--3----|----5--3--2---|
E-5------------3-|-1----------3-|


figura 2--chorus 

G----------------|---------------------|
D-----------5----|-----------10(or /)-|
A-3--5--7-----3-|-5--7--8-----------|
E----------------|---------------------|


voltar para as figuras 1 & 2


bass solo--repetir


G--------------|--------------------|
D----------9--|----------10(& /)-|
A-0---6~------|-----7~------------|
E---------------|-1-----------------|


voltar para figura 1


figura do meio


G--------------|---------------|-------------|-------------|
D------5------|------7-------|------5------|-------10----|
A----7---7----|----8----8----|----7---7----|----8------8-|
E-0---------3-|-1----------1-|-0---------3-|-1-----------|


voltar para o solo de baixo
voltar para a figura 1


G-------------------|-------------------|
D-------------------|-------------------|
A--------5-7-8-7---|--------2-3-2-----|
E-5-7-8----------8-|-1-3-5--------5-3-|


G------------------|-------------------|
D------------------|-------------------|
A--------5-7-8-7--|--------2-3-2-----|
E-5-7-8-----------|-1-3-5--------5-3-|


voltar para figura 1


Final

E-0----| 

		   
AcordesyTabs.com © 2008 Acordes y Tablaturas para guitarra. Tabs and Chords for guitar. Aviso Legal - Contacto
El uso de este sitio está sujeto a la aceptación de los términos y condiciones (25 usuarios online)