tablaturas, partituras y acordes para guitarra
Busca por banda/artista:
 
y/o título de la canción:
A B C D E F G H I J K L M N O P Q R S T U V W X Y Z 0 1 2 3 4 5 6 7 8 9 / Top 100 tabs
Categorías
Usuarios
usuario:
Darse de alta
password:
Artistas más visitados
Publicidad
TOP acordes y tablaturas de Van morrison


Gloria
de Van morrison
Puntúa este acorde/tab:      
(0.5/5)
Reportar este acorde/tab
  Añadir a tus favoritos
  Imprimir
Tabbed by fishbone

This song has a really easy bass line that stays pretty much the same throughout the song. 
This is my first tab, and I am pretty sure that it is correct.


Intro/Verse 1
  1 + 2 + 3 + 4 +  1 + 2 + 3 + 4 +
G|----------------|-----------------|
D|2-----2-0-------|2-----2-0--------| x26
A|------------0---|------------0----|
E|----------------|-----------------|

Chorus (0:50)
  1 + 2 + 3 + 4 +  1 + 2 + 3 + 4 +
G|----------------|----------------|
D|2-----2---------|2-----2---------| x10
A|--------0---0-0-|--------0---0-0-|
E|----------------|----------------|

Bridge (1:09)
  quarter note triplets
  / 3   / 3   / 3   / 3 
G|-------------|--------------|
D|2-2-2--0-----|2-2-2--0------| x3
A|---------0-0-|---------0-0--| 
E|-------------|--------------|

Back to intro x4

Verse 2 (1:27)
  1 + 2 + 3 + 4 +  1 + 2 + 3 + 4 +
G|----------------|---------------|
D|2---2---0-------|2---2---0------| x20
A|------------0---|------------0--| 
E|----------------|---------------|

Chorus 2 (2:04)
  1 + 2 + 3 + 4 +  1 + 2 + 3 + 4 +
G|----------------|----------------|
D|2---2-2-0-------|2---2-2-0-------| x14
A|------------0-0-|------------0-0-|
E|----------------|----------------|

Back to the bridge and that’s the end of the song. Hope you like it!

		   
AcordesyTabs.com © 2008 Acordes y Tablaturas para guitarra. Tabs and Chords for guitar. Aviso Legal - Contacto
El uso de este sitio está sujeto a la aceptación de los términos y condiciones (78 usuarios online)