tablaturas, partituras y acordes para guitarra
Busca por banda/artista:
 
y/o título de la canción:
A B C D E F G H I J K L M N O P Q R S T U V W X Y Z 0 1 2 3 4 5 6 7 8 9 / Top 100 tabs
Categorías
Usuarios
usuario:
Darse de alta
password:
Artistas más visitados
Publicidad
TOP acordes y tablaturas de Metallica


Estás en: Inicio > Letra M > Acordes y tablaturas de Metallica > Creeping Death Solo
Creeping Death Solo
de Metallica
Puntúa este acorde/tab:      
(0.2/5)
Reportar este acorde/tab
  Añadir a tus favoritos
  Imprimir
Metallica- Creeping Death solo


Lead up:(After 3rd chorus)
e----------------------------------------------------------------19p20h22-
B-12-13-15-17p15-13-14-15-17-19p17-15-15-17-19-17-19-20-19-20-22----------
G-------------------------------------------------------------------------
D-------------------------------------------------------------------------
A-------------------------------------------------------------------------
E-------------------------------------------------------------------------


Solo:(Good stuff)
-22b24-22b24-22b24-22b24p22-22b24r23r24-22-19-22-20-1917-21-19-1715-19-17-151
--------------------------------------------------------------------------------
--------------------------------------------------------------------------------
--------------------------------------------------------------------------------
--------------------------------------------------------------------------------
--------------------------------------------------------------------------------


-15p14--------------------------------------------------------------------------
-------17p15-15p14p12h15-1210-10-------------------10-15--15-12----------------
----------------------------------12b(14)r(13)b(14)----14b-14-12----12-14-14-14b
-----------------------------------------------------------------14-------------
--------------------------------------------------------------------------------
--------------------------------------------------------------------------------


------------------------------------------------------------12-15p12----12------
-12-15p12-15p12-----12-15p12-15p12-----12-15p12-15p12-15b-r----------15----15-12
----------------14b----------------14b------------------------------------------
--------------------------------------------------------------------------------
--------------------------------------------------------------------------------
--------------------------------------------------------------------------------


-17p15-14-15p14----14-------12-------------------------------------17-20/22~-22~
----------------17----17p15----15p14-12-14-12-------------------18--------------
----------------------------------------------14-12----12-14/19-----------------
----------------------------------------------------14--------------------------
--------------------------------------------------------------------------------
--------------------------------------------------------------------------------



-------12-17p12-------------12-17p12-------------12-17p12----------------12-17p1
----13----------13-------13----------13-------13----------13----------13--------
-14----------------14-14----------------14-14----------------14-14-14-----------
--------------------------------------------------------------------------------
--------------------------------------------------------------------------------
--------------------------------------------------------------------------------


----------------------------
-15--15--15----------------
-14b-14b-14b-14b(16)14-----
----------------------------
----------------------------
----------------------------


--------------------------------------------------------------------------------
--------------------------------------------------------------------------------
--------------------------------------------------------------------------------
--------------------------------------------------------------------------------
-7-7-7-8-8-8-8-9-9-9-9-9-9-9-9-10-9-10-9-10-9-11-10-12-11-12-11-12-11-13-12-14-1
--------------------------------------------------------------------------------


--------------------------------------------------------------------------------
----------------------------------------------------------------------14-17-14--
-------------------------------------------------12/14-17-14-13-14-16----------1
-11-12-11-12-11-12-12-12-12-13-12-13-15-15-15-15--------------------------------
--------------------------------------------------------------------------------
--------------------------------------------------------------------------------


--------------------------------------------------------------------------------
--------------------------------------------------------------------------------
-16p14----14--------------------------------------------------------------11-12-
-------16----16p14-16p14----14-------------------------------12-12-14--14-------
-------------------------16----16-14-16p14-12-14p12----12-14--------------------
----------------------------------------------------14--------------------------


-12------12/14-15-17----15--14-----17-17-19-20-19-17-15-14h15-15p14p12-15p14p12
--------------------------------17----------------------------------------------
--------------------------------------------------------------------------------
--------------------------------------------------------------------------------
--------------------------------------------------------------------------------
--------------------------------------------------------------------------------


-15p14p12-15p14p12-15p14p12-15-12/14--17p15p14-17p15p14-17p15p14-17p15p14-17p15p
--------------------------------------------------------------------------------
--------------------------------------------------------------------------------
--------------------------------------------------------------------------------
--------------------------------------------------------------------------------
--------------------------------------------------------------------------------


-19p17p15-19p17p15-19p17p15-19-15-16-20p19p17-20p19p17-22p20p19-22p20p19---22b(2
--------------------------------------------------------------------------------
--------------------------------------------------------------------------------
--------------------------------------------------------------------------------
--------------------------------------------------------------------------------
--------------------------------------------------------------------------------


Goobye now. Good stuuff. I like edam cheese mmmmmmmmmmmmmmmmmmmmmmmmmmmmmmmmmmmm
		   
AcordesyTabs.com © 2008 Acordes y Tablaturas para guitarra. Tabs and Chords for guitar. Aviso Legal - Contacto
El uso de este sitio está sujeto a la aceptación de los términos y condiciones (96 usuarios online)