tablaturas, partituras y acordes para guitarra
Busca por banda/artista:
 
y/o título de la canción:
A B C D E F G H I J K L M N O P Q R S T U V W X Y Z 0 1 2 3 4 5 6 7 8 9 / Top 100 tabs
Categorías
Usuarios
usuario:
Darse de alta
password:
Artistas más visitados
Publicidad
TOP acordes y tablaturas de Black sabbath


Estás en: Inicio > Letra B > Acordes y tablaturas de Black sabbath > No stranger to love
No stranger to love
de Black sabbath
Puntúa este acorde/tab:      
(0.7/5)
Reportar este acorde/tab
  Añadir a tus favoritos
  Imprimir
|-----------------------------------------15-12-14-------------------
|-----12-15^-15^---------17^-^17-17^---------------15-12h15p12----12-
|-14^----------------------------------------------------------14----
|--------------------------------------------------------------------
|--------------------------------------------------------------------
|--------------------------------------------------------------------

|-------------------------------
|-------------------------------
|-12-11-------------------------
|-------12----14/16-14
-------
|----------14-------------14----
|-------------------------------
"Cold is the night..."                 "ya said that you'd..." 
|--------------------------------------------------------|--(1st time)
|--------------------------------------------------------|---------
|-9-------------------9----------------------------------|-9-12----
|-9---------9---------9----------9--------7-------7-9-10-|-9-12-12-
|-7---------9---------7----------9--------7-------7-9-10-|-7-10-12-
|-0---------7---------0----------7--------5-------5-7--8-|------10-
          "Living on the street..."
|(2nd time)3---------------------------3------------------------
|----------0---------------------------0------------------------
|----7-----0-------7------9-----7------0------7-------9-----7---
|-7--7-----0-------7------9--9--7------0------7-------9--9--7---
|-7--5-----2-------5------7--9--5------2------5-------7--9--5---
|-5--------3-----------------7---------3-----------------7------
"Im a stranger in your arms..."
|---------------------------------------------------
|---------------------7h8-8-8-7---------------------
|-----0---------------7h9-9-9-7------0--------------
|---2---2-4-----7------------------2---2-4-----7----
|-3-------2-----5----------------3-------2-----5----
|---------------------------------------------------
                        P.M.  ..   ..    ..
|--------------------------------------------------
|--------------------------------------------------
|--------------------------------------------------
|--------------------4/5-----9---7-----------------
|-7--5h7--7p5----5h7------9----------9p7-----------
|-0-----0----0-0----------7----7---7-----7-10------

Solo:
|-------------15-12-14-12----------------------------------
|-15^-15-15^--------------15-12----------------------------
|-------------------------------12-12h14p12p11-------------
|----------------------------------------------------------
|----------------------------------------------------------
|----------------------------------------------------------

|--------------------------------------------12------------
|------------------------h---------------------15-12-------
|-11h12-14--12-11h12p11-11-12-14-11h12p11-/14--------14----
|----------------------------------------------------------
|----------------------------------------------------------
|----------------------------------------------------------

|-------------------------------17-----------------------------
|---------------------------17^----17-17^-17
-12-------------
|-11h12p11-----------------------------------------14p12p11----
|----------12----------------------------------------------12--
|-------------14~~~~~------------------------------------------
|--------------------------------------------------------------

|----------------14-------------------14-----------------------
|-------------------15-12-15p12----12----15-12----12-----------
|-14p12p11-12-14----------------14-------------15---15-14-12---
|-----------------------------------------------------------14-
|--------------------------------------------------------------
|--------------------------------------------------------------

|--------------------------
|--------------------------
|-14-12----12---------let ring
|-------14---14-12---------
|------------------14~~----
|--------------------------		   
AcordesyTabs.com © 2008 Acordes y Tablaturas para guitarra. Tabs and Chords for guitar. Aviso Legal - Contacto
El uso de este sitio está sujeto a la aceptación de los términos y condiciones (27 usuarios online)