tablaturas, partituras y acordes para guitarra
Busca por banda/artista:
 
y/o título de la canción:
A B C D E F G H I J K L M N O P Q R S T U V W X Y Z 0 1 2 3 4 5 6 7 8 9 / Top 100 tabs
Categorías
Usuarios
usuario:
Darse de alta
password:
Artistas más visitados
Publicidad
TOP acordes y tablaturas de Metallica


Estás en: Inicio > Letra M > Acordes y tablaturas de Metallica > Devils Dance
Devils Dance
de Metallica
Puntúa este acorde/tab:      
(0.6/5)
Reportar este acorde/tab
  Añadir a tus favoritos
  Imprimir
Devil's Dance.
Mike grant


Tune all guitars down one step. (like Sad but True)

echo off

echo 1 second delay Lead comes in (I don't know it yet)
d-------------------------- ----------------------------
A-------------------------- ---------------------------- 
F-------------------------- 2times ---------------------------- 
12 times C-------------------------- ----------------------------
G--2-2-2-echo-2-2-2-2-echo- -2-2-2-2--2-2--2-2--2-2-2-2-
D--0-0-0-echo-0-0-0-0-echo- -0-0-0-0--0-0--0-0--0-0-0-0-
palm muted....................................................


*1 C--2-detune--------------------------------------------------------------
G--2-detune--7------7------7------7------7----7----7----7----7-----------
D--0-detune----6~~~~--5~~~~--6~~~~--5~~~~--6~~--5~~--6~~--5~~--6~~6-5-3-5


| v1 4times | | v2 2times |
C-------------------------|-------------------|-------|------------------|
G-----7----7----8-7-5-7-5-|-2-2-2-2-2-5--2-2-2|-8-7-5-|5-5-5-5-5-5--5-5-5|
D--6~~--5~~--6~~6-5-3-5-3-|-0-0-0-0-0-3--0-0-0|-6-5-3-|3-3-3-3-3-3--3-3-3|

pm......... ..... pm................


| v3 1 time |
C-----------------|---------------------------------------|
G--8-7-5-v1 2times|5-5-5-5-5--5-5--5-5-5-5--4-4-4-4-4--4-4|
D--6-5-3----------|3-3-3-3-3--3-3--3-3-3-3--2-2-2-2-2--2-2|

pm.....................................
v4 | c1 4 times |
C--------------------------------------|-------------------------------------|
G--7----7----7---------------7----7----|8-8--8-8--8-8--8-8-7--2-2--5-5--2-5-8|
D----6~~--5~~--6~~6-5-3-5-6~~--5~~--6~~|6-6--6-6--6-6--6-6-5--0-0--3-3--0-3-6|

pm....................................

That's the rythm part. I don't know the lead yet. Here's how its layed out


Yeah! I feel you too (v1 2times)
Feel! Those things you do (v1 2times) 6-5-3
In your eyes I see a fire thats burnin' through (v2 2times)
That's what we proved (v1 2times) 6-5-3
Deep inside I know those seeds I plan will grow (v3 1time)
(v4 1time)
Some day you will see (c1 1time)
The dance about to be (c1 1time)
C'mon; Now take a chance (c1 1time)
That's Right!!! (c1 1time)
Let's Dance (no music)


		   
AcordesyTabs.com © 2008 Acordes y Tablaturas para guitarra. Tabs and Chords for guitar. Aviso Legal - Contacto
El uso de este sitio está sujeto a la aceptación de los términos y condiciones (22 usuarios online)