tablaturas, partituras y acordes para guitarra
Busca por banda/artista:
 
y/o título de la canción:
A B C D E F G H I J K L M N O P Q R S T U V W X Y Z 0 1 2 3 4 5 6 7 8 9 / Top 100 tabs
Categorías
Usuarios
usuario:
Darse de alta
password:
Artistas más visitados
Publicidad
TOP acordes y tablaturas de Dave matthews band


40
de Dave matthews band
Puntúa este acorde/tab:      
(0.2/5)
Reportar este acorde/tab
  Añadir a tus favoritos
  Imprimir

# 40, Always- Dave Matthews Band
(Off the Listener Supported CD)

Intro
(“Tables turned again…”)
E--------------------------------------------                                              
B-------------------------------------------                                               
G-------------5-----------------5---------- (barred Chords)     F       G    
D---------5------------------5-------------                                                
A-----3------------------2-----------------                                                
E---------------------------------------1---                                                

E-------------------------------
B-------------------------------
G-------------------------------    ( barred chords)  F  G    repeat
D-------------------------------
A----3---------2---------------
E-----------------------1-------

(“I know that…”)
E---------------------
B---------------------
G---------------------   (Standard chords)   D G  D      
D---------------------
A---3-------2---------
E -----------------2---                                           

(barred chords) F#m   G   A  Dm   C#m   B  Cm

 ENJOY!! -tabbed by jen 
Questions? Comments? http://www.angelfire.com/retro/tabs


		   
AcordesyTabs.com © 2008 Acordes y Tablaturas para guitarra. Tabs and Chords for guitar. Aviso Legal - Contacto
El uso de este sitio está sujeto a la aceptación de los términos y condiciones (32 usuarios online)