tablaturas, partituras y acordes para guitarra
Busca por banda/artista:
 
y/o título de la canción:
A B C D E F G H I J K L M N O P Q R S T U V W X Y Z 0 1 2 3 4 5 6 7 8 9 / Top 100 tabs
Categorías
Usuarios
usuario:
Darse de alta
password:
Artistas más visitados
Publicidad
TOP acordes y tablaturas de Metallica


Estás en: Inicio > Letra M > Acordes y tablaturas de Metallica > Disposable Heroes Solo
Disposable Heroes Solo
de Metallica
Puntúa este acorde/tab:      
(0.2/5)
Reportar este acorde/tab
  Añadir a tus favoritos
  Imprimir
This is the right way so dont fuck


|------------------------------------|-------------------------12--|
|-----15-------15-------15-------15--|-----------------------------|
|--14b16----14b16----14b16----14b16--|---14p12------12--14b16------|
|------------------------------------|----------14-----------------|
|------------------------------------|-----------------------------|
|------------------------------------|-----------------------------|


|----------------------------------------------12------|
|--15--12------12--15--12----12----15--12--15------12--|
|----------14------------------------------------------|
|------------------------------------------------------|
|------------------------------------------------------|
|------------------------------------------------------|


|---------12---------12----------------12--|--22b24--22b24------22b24--22p19--|
|--15b17------15b17------15b17--15b17------|----------------------------------|
|------------------------------------------|----------------------------------|
|------------------------------------------|----------------------------------|
|------------------------------------------|----------------------------------|
|------------------------------------------|----------------------------------|


|-22p19------19------------19------------|--------19--------------------19------
|--------22------22b24---------22p19--22-|-22b24------22p19--22--22b24------22p1
|----------------------------------------|--------------------------------------
|----------------------------------------|--------------------------------------
|----------------------------------------|--------------------------------------
|----------------------------------------|--------------------------------------


|---------19---------19--------------|--19--20--22--20--1917--19--1715--17--15
|--22b24------22b24------22b23--b24--|------------------------------------------
|------------------------------------|------------------------------------------
|------------------------------------|------------------------------------------
|------------------------------------|------------------------------------------
|------------------------------------|------------------------------------------


|--15--17--14--15--1412--14--1210--12--10------|
|--------------------------------------------13--|
|------------------------------------------------|
|------------------------------------------------|
|------------------------------------------------|
|------------------------------------------------|


|------10--12--10--------------------------------|
|--13--------------13--12----10--12--10----------|
|----------------------------------------12--11--|
|------------------------------------------------|
|------------------------------------------------|
|------------------------------------------------|


           T         T      T         T        T            T
|-------------------------------------------------------------------|
|--15p12--17p15p12--17p15--17p12h15--17p12h15--17p12h15----17p128--|
|-------------------------------------------------------------------|
|-------------------------------------------------------------------|
|-------------------------------------------------------------------|
|-------------------------------------------------------------------|


|----------------------------------------|-------------------------------------|
|----------------------------------------|-------------------------------------|
|--9b11--(11)--(11)--(11)--(11)----(11)--|--(11)--(11)--(11)--(11)----r7----9--|
|----------------------------------------|-------------------------------------|
|----------------------------------------|-------------------------------------|
|----------------------------------------|-------------------------------------|
        hold bend

                                                    w/ bar
|-----------------------------------|------------------------|
|-----------------------------------|------------------------|
|--9b11--r9-p7-----7--9p7-----------|------------------------|
|---------------9----------9--7-----|------------------------|
|--------------------------------9--|--8--7------7--98/9----|
|-----------------------------------|--------10--------------|


 C5      C5       C5  D5

|--18p15-----------------------------|---------------------------|
|---------1613----------------------|---------------------------|
|----------------12------------------|-----------------15----15--|
|--------------------13--12----------|------13--15/17------------|
|----------------------------15--13--|--15-----------------------|
|------------------------------------|---------------------------|


C5    C5
   tremolo picking......................................................|
|------------------------------------------|------------------------------------
|--13-13-13-15-15-15-16-16-16-16b18-18-18--|--------------------13-13-13-15/17--
|------------------------------------------|--12-12-12-14-14-14-----------------
|------------------------------------------|------------------------------------
|------------------------------------------|------------------------------------
|------------------------------------------|------------------------------------


|-17p12-----17p12------17p12------17p12----|-16p12----16p12------16p12----16p12-
|-------12---------12---------12--------12-|-------12--------12--------12-------
|------------------------------------------|------------------------------------
|------------------------------------------|------------------------------------
|------------------------------------------|------------------------------------
|------------------------------------------|------------------------------------


|-17p12-----17p12------16p12------16p12----|-17p12----17p12------16p12----16p12-
|-------12---------12---------12--------12-|-------12--------12--------12-------
|------------------------------------------|------------------------------------
|------------------------------------------|------------------------------------
|------------------------------------------|------------------------------------
|------------------------------------------|------------------------------------


  C5C5C5 D5

|-----------------------------|----------------------------------------|
|--15b17---15b17-~----12------|--12--15--12h15--15b17-~----15--12------|
|-------------------------14--|------------------------------------14--|
|-----------------------------|----------------------------------------|
|-----------------------------|----------------------------------------|
|-----------------------------|----------------------------------------|


  C5   C5

|------15b17-~----15--12----------------|----------------------------|
|--12-----------------------15--12------|----------------------------|
|-----------------------------------14--|--12------12--14b16-~------|
|---------------------------------------|------14--------------------|
|---------------------------------------|----------------------------|
|---------------------------------------|----------------------------|

|-----------------------------|----------------------------|
|-----------------------------|----------------------------|
|-----------------------------|--------7---------7--7------|
|--9-------------------7------|--9--7-----10--9--------10--|
|-----7--7--10--9---------10--|----------------------------|
|------------------10---------|----------------------------|
  PM.....................................................|


|--------------------7------|----------------17------|
|-----------7---------------|--17--15--14-------------|
|--9--7--7-----9--7-----10--|-------------------------|
|---------------------------|-------------------------|
|---------------------------|-------------------------|
|---------------------------|-------------------------|
  PM......................|


|-------------------------------|----------------12--------------|
|-----------------13------------|--15----------------------------|
|--/12----12--12------12----12--|------12----12------12--12--12--|
|-------------------------------|--------------------------------|
|-------------------------------|--------------------------------|
|-------------------------------|--------------------------------|


|------------------------------|----------------15b17---r15-|
|----------------13------------|--15------------------------|
|--12----12--12------12----12--|------12----12--------------|
|------------------------------|----------------------------|
|------------------------------|----------------------------|
|------------------------------|----------------------------|
  triplets (next 3 bars)
 
|--15-12----12--------------------------|--------------------------------12--|
|--------15----15-12-15-12----12----12--|--15-12-----------------------------|
|--------------------------14----14-----|--------14-12----12-14-12-----------|
|---------------------------------------|--------------14----------14-14-----|
|---------------------------------------|------------------------------------|
|---------------------------------------|------------------------------------|


|--15-12--------------------------------|-----------------------|
|--------15-12----12-15-12--------------|-----------------------|
|--------------14----------14-12----12--|--14b16--14--12--------|
|--------------------------------14-----|-----------------14-~-~|
|---------------------------------------|-----------------------|
|---------------------------------------|-----------------------|


|-------------------------------|----------------12--------------|
|-----------------13------------|--15----------------------------|
|--/12----12--12------12----12--|------12----12------12--12--12--|
|-------------------------------|--------------------------------|
|-------------------------------|--------------------------------|
|-------------------------------|--------------------------------|


|------------------------------|----------------15b17--r15--|
|----------------13------------|--15------------------------|
|--12----12--12------12----12--|------12----12--------------|
|------------------------------|----------------------------|
|------------------------------|----------------------------|
|------------------------------|----------------------------|
  triplets (next 3 1/2 bars)

|--15-12----12----------------------14--|--17-15-14-15-14----14-----------------
|--------15----15-12-15-12----12--------|-----------------17----17-15-17-15-14--
|--------------------------14----14-----|---------------------------------------
|---------------------------------------|---------------------------------------
|---------------------------------------|---------------------------------------
|---------------------------------------|---------------------------------------


|-19-17-15----------21-19-17----------|-22-21-19-----------22b24--22b24-|--22b24
|----------19-17-16----------21-19-17-|----------22-21-19---------------|-------
|-------------------------------------|---------------------------------|-------
|-------------------------------------|---------------------------------|-------
|-------------------------------------|---------------------------------|-------
|-------------------------------------|---------------------------------|-------
		   
AcordesyTabs.com © 2008 Acordes y Tablaturas para guitarra. Tabs and Chords for guitar. Aviso Legal - Contacto
El uso de este sitio está sujeto a la aceptación de los términos y condiciones (101 usuarios online)