tablaturas, partituras y acordes para guitarra
Busca por banda/artista:
 
y/o título de la canción:
A B C D E F G H I J K L M N O P Q R S T U V W X Y Z 0 1 2 3 4 5 6 7 8 9 / Top 100 tabs
Categorías
Usuarios
usuario:
Darse de alta
password:
Artistas más visitados
Publicidad
TOP acordes y tablaturas de Afi


Estás en: Inicio > Letra A > Acordes y tablaturas de Afi > Silver and cold
Silver and cold
de Afi
Puntúa este acorde/tab:      
(0.1/5)
Reportar este acorde/tab
  Añadir a tus favoritos
  Imprimir
Afinação normal [EBGDAE]

Guitarra 1 Intro (depois da chuva e do piano)
E/----------------------------000000000000000000-0--------/
B/----------------------------000000000000000000-0--------/
G/----------------------------000000000000000000-1--------/
D/999999-777777-555555-777777-222222222222222222-2let-ring/
A/999999-777777-555555-777777-222222222222222222-2let-ring/
E/777777-555555-333333-555555-000000000000000000-0let-ring/

Guitarra 2 Intro
E/777777-999999-101010101010-777777-999999-101010101010-----/
B/xxxxxx-xxxxxx-x-x-x-x-x-x--xxxxxx-xxxxxx-x-x-x-x-x-x-pause/
G/444444-666666-7-7-7-7-7-7--444444-666666-7-7-7-7-7-7------/
D/----------------------------------------------------------/
A/----------------------------------------------------------/
E/----------------------------------------------------------/

Verso(com reverb)(tudo entre parenteses com palm muted) 
E/---------------------------------------------------------0-------------/
B/---------------------------5-----------------------------0-------------/
G/----------------------------4----------------------------0-------------/
D/-0----0---0--0--0----0---0-----0----0---0--0--0----0---0-2-------------/
A/--0--5---4--5----0--5---4-------0--5---4--5----0--5---4--2-------------/
E/7---3---5--7---7---5---3------7---3---5--7---7---5---3---0-------------/

E/-----------------------------------------------------------000000000000/
B/-----------------------------------------------------------000000000000/
G/-----------------------------------------------------------000000000000/
D/---------------------------------------------------0--0--0-222222222222/
A/(999-555-777-999999-777-555-222-999-555-777-999)--4--4--4--222222222222/
E/(777-333-555-777777-555-333-000-777-333-555-777)-7--5--3---000000000000/

Chorus
E/-------------------------------------------------777777----------------------/
B/-------------------------------------------------777777----------------------/
G/555555--------777777-999999-555555--------777777-777777-999999-555555-777777-/
D/555555-555555-777777-999999-555555-555555-777777-999999-999999-555555-777777-/
A/333333-555555-555555-777777-333333-555555-555555-999999-777777-333333-555555-/
E/-------333333----------------------333333--------777777----------------------/

E/--------------------------------------------/
B/--------------------------------------------/
G/999999999999-777777-555555555555-4deixa-soar/
D/999999999999-777777-555555555555-4deixa-soar/
A/777777777777-555555-333333333333-2deixa-soar/
E/--------------------------------------------/

Pre Verso
E/---------------------------------------------------------harmonic12/
B/---------------------------5-----------------------------harmonic12/
G/----------------------------4--------------------------------------/
D/-0----0---0--0--0----0---0-----0----0---0--0--0----0---0-----------/
A/--0--5---4--5----0--5---4-------0--5---4--5----0--5---4------------/
E/7---3---5--7---7---5---3------7---3---5--7---7---5---3-------------/

Verso2 (palm muted) /= parar o palm mute
E/---------------------------------------------------------------------/
B/---------------------------------------------------------------------/
G/---------------------------------------------------------------------/
D/999-555-777-999999-777-555-222-999-555-777-999/--0--0--0-222222222222/
A/999-555-777-999999-777-555-222-999-555-777-999/-4--4--4--222222222222/
E/777-333-555-777777-555-333-000-777-333-555-777/7--5--3---000000000000/

E/----------------------------------------------/
B/----------------------------------------------/
G/----------------------------------------------/
D/9-5-7-9-9-7-5-2-9-5-7-9---0--0--0-222222222222/
A/9-5-7-9-9-7-5-2-9-5-7-9--4--4--4--222222222222/
E/7-3-5-7-7-5-3-0-7-3-5-7-7--5--3---000000000000/

No final do verso, a guitarra 2 toca:
E/-----------777-555-333-000/
B/-7--5--3------------------/
G/4--2--0-------------------/
D/--------------------------/
A/--------------------------/
E/--------------------------/

Bridge
E/---------------/
B/---------------/
G/-----0---------/
D/---0--4-----0-4/
A/202-2----202-2-/
E/---------------/

E/-----------------------------------------------------------/
B/---------------------------5-----------------------------5-/
G/----------------------------4-----------------------------4/ 
D/-0----0---0--0--0----0---0-----0----0---0--0--0----0---0---/
A/--0--5---4--5----0--5---4-------0--5---4--5----0--5---4----/
E/7---3---5--7---7---5---3------7---3---5--7---7---5---3-----/





E/-----/
B/-----/
G/9-8-8/
D/9-9-8/
A/7-9-6/
E/7-7-7/

No último refrão, o solo abaixo é tocado: (parte 1)
E/88-77-55-33-55-55-88-88-333333-888888-101010101010-12----12-----/
B/------------------------333333-888888-101010101010---12----12---/
G/------------------------000000-555555-7-7-7-7-7-7------12----12-/ x2
D/----------------------------------------------------------------/
A/----------------------------------------------------------------/
E/----------------------------------------------------------------/
Depois de tocar toda vez a parte 1, toque:
E/777777-555555-333333333333/
B/xxxxxx-xxxxxx-333333333333/
G/444444-222222-------------/
D/--------------------------/
A/--------------------------/
E/--------------------------/

Ordem:
Intro
Verso 
Chorus
Verso
Chorus
Bridge
Chorus
Chorus with solo		   
AcordesyTabs.com © 2008 Acordes y Tablaturas para guitarra. Tabs and Chords for guitar. Aviso Legal - Contacto
El uso de este sitio está sujeto a la aceptación de los términos y condiciones (24 usuarios online)