tablaturas, partituras y acordes para guitarra
Busca por banda/artista:
 
y/o título de la canción:
A B C D E F G H I J K L M N O P Q R S T U V W X Y Z 0 1 2 3 4 5 6 7 8 9 / Top 100 tabs
Categorías
Usuarios
usuario:
Darse de alta
password:
Artistas más visitados
Publicidad
TOP acordes y tablaturas de AndrÉs calamaro


No me empujes
de AndrÉs calamaro
Puntúa este acorde/tab:      
(0/5)
Reportar este acorde/tab
  Añadir a tus favoritos
  Imprimir
Intro: C - Am - F - G (x2)

C            Am       
No me importan todos tus problemas
F           G
asi no te quiero conocer
C              Am
no me empujes a otro abandono
F            G
no es un buen momento para perder. 
Como intro
Ya se van las luces 
en el horizonte
todo tiene un final todo termina(presente)       
por un momento te voy a dejar sola
no es un trago facil para mi

Zapatos de  gamuza, zapatos de charol bailando al compás de la liberación
bailando en los rincones mas dorados de la ciudad
bailando sobre la sangre de los demas.

 | -------------------------------------12--------------12--------12--
 | -------8---8 10/(11)-8----8-10
----12--10-/-15----15-15/(17)-
 | --7-9---9----------------9----------------------------------------
 | -------------------------------------------------------------------
 | -------------------------------------------------------------------
 | -------------------------------------------------------------------

 | -----------------------------------------------------------------------------
 | ----------------------------------------8---10---8/10--------8--10/12-10/12--
 | ------7---9------------7-7/9--------9--------------------9-----------------
 | --------9------------5/7-----------10-------------------10-------------------
 | --5/7-----------5/7----------------------------------------------------------
 | -----------------------------------------------------------------------------


Con un tono mas... 
D - Bm - G - A

D             Bm 
No me importan todos tus problemas...

no me empujes a abandonarte de nuevo... 		   
AcordesyTabs.com © 2008 Acordes y Tablaturas para guitarra. Tabs and Chords for guitar. Aviso Legal - Contacto
El uso de este sitio está sujeto a la aceptación de los términos y condiciones (31 usuarios online)