tablaturas, partituras y acordes para guitarra
Busca por banda/artista:
 
y/o título de la canción:
A B C D E F G H I J K L M N O P Q R S T U V W X Y Z 0 1 2 3 4 5 6 7 8 9 / Top 100 tabs
Categorías
Usuarios
usuario:
Darse de alta
password:
Artistas más visitados
Publicidad
TOP acordes y tablaturas de Metallica


Estás en: Inicio > Letra M > Acordes y tablaturas de Metallica > Enter Sandman
Enter Sandman
de Metallica
Puntúa este acorde/tab:      
(0.4/5)
Reportar este acorde/tab
  Añadir a tus favoritos
  Imprimir
Intro Riff: played 3 or four times

e:-------------
B:-------------
G:---------------      
D:------5---------      
A:----7-------7--
E:--0-----6-5----

Next:
[-------Play this a few times--------]
e:------------------|----------------|------------------
B:------------------|----------------|------------------
G:------------------|----------------|------------------
D:------------------|----------------|------------------
A:---------------/7-|--------------/7|---5---4---4-5-4-2
E:-0-0-0-0-0-0-0----|0-0-0-0-0-0-0---|-0-3-0-2-0-2-3-2-0

[--Play twice-i think-------------]
e:----------------|----------------
B:----------------|----------------
G:----------------|----------------
D:----------------|----------------
A:-----/7--------3|-----/7--------3
E:-0-0---6-0-0-0-1|-0-0---6-0-0-0-1

e:------------------
B:------------------
G:------------------
D:------------------
A:---5---4---4-5-4-2
E:-0-3-0-2-0-2-3-2-0


I don't know how many times each part is played,  i am doing this by memory.
		   
AcordesyTabs.com © 2008 Acordes y Tablaturas para guitarra. Tabs and Chords for guitar. Aviso Legal - Contacto
El uso de este sitio está sujeto a la aceptación de los términos y condiciones (36 usuarios online)