tablaturas, partituras y acordes para guitarra
Busca por banda/artista:
 
y/o título de la canción:
A B C D E F G H I J K L M N O P Q R S T U V W X Y Z 0 1 2 3 4 5 6 7 8 9 / Top 100 tabs
Categorías
Usuarios
usuario:
Darse de alta
password:
Artistas más visitados
Publicidad
TOP acordes y tablaturas de Story of the year


Estás en: Inicio > Letra S > Acordes y tablaturas de Story of the year > Until the day i die
Until the day i die
de Story of the year
Puntúa este acorde/tab:      
(0.8/5)
Reportar este acorde/tab
  Añadir a tus favoritos
  Imprimir
Tom: F

Intro:

Guita 1
|-----------------------------------|
|----------10--------------10-------|
|---7----7----7---7--7---7----7---7-|
|-9----9--------9------9--------9---|
|-----------------------------------|
|-----------------------------------|

|---------------------------------------------------------|
|-15-15-15-15-15-15--14-14-14--10-10-10-10-10-10-10-10-10-|
|-14-14-14-14-14-14--13-13-13--9--9--9--9--9--9--9--9--9--|
|-12-12-12-12-12-12--11-11-11--7--7--7--7--7--7--7--7--7--|
|---------------------------------------------------------|
|---------------------------------------------------------|

Guita 2
|----------------------------------------|
|----------------------------------------|
|--7-7-7-7-7-7--4-4-4--------------------|
|--7-7-7-7-7-7--6-4-4--7-7-7-7-7-7-7-7-7-|
|--5-5-5-5-5-5--6-6-6--7-7-7-7-7-7-7-7-7-|
|----------------------5-5-5-5-5-5-5-5-5-|

Final

Guita 1
|-------------------------|
|-15-15-15--14-14-14--10--|
|-14-14-14--13-13-13--9---|
|-12-12-12--11-11-11--7---|
|-------------------------|
|-------------------------|

Guita 2
|------------------|
|------------------|
|--7-7-7--4-4-4----|
|--7-7-7--6-4-4--7-|
|--5-5-5--6-6-6--7-|
|----------------5-|		   
AcordesyTabs.com © 2008 Acordes y Tablaturas para guitarra. Tabs and Chords for guitar. Aviso Legal - Contacto
El uso de este sitio está sujeto a la aceptación de los términos y condiciones (29 usuarios online)