tablaturas, partituras y acordes para guitarra
Busca por banda/artista:
 
y/o título de la canción:
A B C D E F G H I J K L M N O P Q R S T U V W X Y Z 0 1 2 3 4 5 6 7 8 9 / Top 100 tabs
Categorías
Usuarios
usuario:
Darse de alta
password:
Artistas más visitados
Publicidad
TOP acordes y tablaturas de Metallica


Estás en: Inicio > Letra M > Acordes y tablaturas de Metallica > Fade The Black Riffs
Fade The Black Riffs
de Metallica
Puntúa este acorde/tab:      
(0.2/5)
Reportar este acorde/tab
  Añadir a tus favoritos
  Imprimir
Song: Fade the Black
Artist: Metalica
Sent by: me, Distortionfreak (Cause I love the sound of distortion)        

Ok, this isn't one of my favorite songs, but since I know how
to play it perfectly i'll put it down. But don't get get me
wrong this is an "of the shisy" song so heres how it goes .  

intro        
e---------------------------------------------------------
B---------------------------------------------------------
G---------------------------0-----------------------------
D--232-2-2-232-2-2-232-2-2-0-0-0--------------------------
A-0---0-3-------3-0---0-3-2---2--30-----------------------
E---------3---3-----------------3-------------------------



verse                   Life just seems to fade away...
e---------------------------------------------------------
B---------------------------------------------------------
G---2-----0-----------------------------------------------
D--2---2-2------0-----------------------------------------
A-0--03-3--343-2---2--20----------------------------------
E-------------3--03--3------------------------------------


Then after that I dont know how it goes, but the beggining sonds
right, don't it. So if your into guitar playing, or you need the
tabs to a song and you can't find it on the net, e-mail the song
to along with your e-mail and i'll find it out and e-mail it back.
My e-mail is Windwrider@myway.com 
		   
AcordesyTabs.com © 2008 Acordes y Tablaturas para guitarra. Tabs and Chords for guitar. Aviso Legal - Contacto
El uso de este sitio está sujeto a la aceptación de los términos y condiciones (24 usuarios online)