tablaturas, partituras y acordes para guitarra
Busca por banda/artista:
 
y/o título de la canción:
A B C D E F G H I J K L M N O P Q R S T U V W X Y Z 0 1 2 3 4 5 6 7 8 9 / Top 100 tabs
Categorías
Usuarios
usuario:
Darse de alta
password:
Artistas más visitados
Publicidad
TOP acordes y tablaturas de Metallica


Estás en: Inicio > Letra M > Acordes y tablaturas de Metallica > Fade To Black Intro And Solo
Fade To Black Intro And Solo
de Metallica
Puntúa este acorde/tab:      
(0.4/5)
Reportar este acorde/tab
  Añadir a tus favoritos
  Imprimir
Fade to Black by MetallicA (Ride the Lightning)

e ------------------------------------------------------------------------------
B ------------------------------------------------------------------------------
G -----0----------------------0--------------------0--------------------2-------
D ---4---4---4-0-4----------4---4---4-0-4--------4---4---4-0-4--------2---2---2-
A -2-------2--------------0-------0------------2-------2------------4-------4---
E ------------------------------------------------------------------------------

Intro Solo

e ------------------------------------------------------------------------------
B ------7----7-8-10--8-10-12-10-8-10--12-10-87-8-7---7-------------------8-7--8
G ----7---------------------------------------------9---9-7------7-6--7-6-------
D -/9------9------------------------------------------------7-9-----------------
A ------------------------------------------------------------------------------
E ------------------------------------------------------------------------------

e ----14-19-14--------15-14-----------------------------------------------------
B -15----------15-----------15-----17-15-14------------------------------14-15--
G ----------------16-----------14-----------16-14--14-16-----------14-16-------1
D -------------------------------------------------------14--14-16--------------
A ------------------------------------------------------------------------------
E ------------------------------------------------------------------------------

e -14-15-14--------14-15-14----17-15-14-
B ----------15--------------15----------
G -------------14-----------------------
D --------------------------------------
A --------------------------------------
E --------------------------------------


e ---------------------1-3-1h3p1---
B -----------------1-3-----------3-
G -------------0-2-----------------
D -------0-2-3---------------------
A -0-2-3---------------------------
E ---------------------------------
		   
AcordesyTabs.com © 2008 Acordes y Tablaturas para guitarra. Tabs and Chords for guitar. Aviso Legal - Contacto
El uso de este sitio está sujeto a la aceptación de los términos y condiciones (93 usuarios online)