tablaturas, partituras y acordes para guitarra
Busca por banda/artista:
 
y/o título de la canción:
A B C D E F G H I J K L M N O P Q R S T U V W X Y Z 0 1 2 3 4 5 6 7 8 9 / Top 100 tabs
Categorías
Usuarios
usuario:
Darse de alta
password:
Artistas más visitados
Publicidad
TOP acordes y tablaturas de Metallica


Estás en: Inicio > Letra M > Acordes y tablaturas de Metallica > Fade To Black Intro Solo
Fade To Black Intro Solo
de Metallica
Puntúa este acorde/tab:      
(0.5/5)
Reportar este acorde/tab
  Añadir a tus favoritos
  Imprimir
Hi guys it's me the 15 year old guitar player Joey Montuori. Here is the real wa
the other ones are wrong I sat there for hours getting this down and I know it's

Metallica

Album= Ride the lighting

Song= Fade to  black track 4



INTRO JAMES HETFIELD 
 
0:08


e-------------------------------------------------------------------------------
B-------------------------------------------------------------------------------
G-----0--------------0--------------0------------------2------------------------
D---4---4--4---4---4---4--4---4---4---4----4----4----2---2---2---2--------------
A-2------2---5---0------0---5---2-------2-----5----4-------4---0----------------
E-------------------------------------------------------------------------------


INTRO SOLO kirk hammett

0:13

e-------------------------------------------------------------------------------
B-----------7--------7-8s10--8--10--12--10--8--10--(10)--12p10p8s7h8p7----7--7h8
G------7---(7)----------------------------------------------------------9-------
D--s9------------9--------------------------------------------------------------
A-------------------------------------------------------------------------------
E-------------------------------------------------------------------------------

e-------------------------------------------14--19--14-------15p14--------------
B---------------------8--7--8s10~~~~~~---15------------15----------15----17-15-1
G-----------7s6--7p6--------------------------------------16----------14--------
D-7--9-(9)s---------------------------------------------------------------------
A-------------------------------------------------------------------------------
E-------------------------------------------------------------------------------

e----------------------------------------------------------------19-17-15-15-17-
B--------------------------------------14-15-14h15p14--14h15--14----------------
G--(14)~~~~-14h16----------------14-16---------------16-------------------------
D-----------------14~~~---14h16-------------------------------------------------
A-------------------------------------------------------------------------------
E-------------------------------------------------------------------------------

e--14-15-14--------14-15-14---17-15-14~---------------------------------12-13-15
B-----------15--------------15---------------------------------12-13-15---------
G--------------14----------------------------------------12-14------------------
D------------------------------------------------12-14-15-----------------------
A----------------------------------------12-14-15-------------------------------
E-------------------------------------------------------------------------------


Well there it is the intro solo it took be a couple of hors to figure it out but
right I don't post things unless I know it's right. Any questions or comments pl
email me at joey820_2000@yahoo.com Have fun with this tab it's hard to get it do
be patient you will slowly start tp memorize it if you keep practicing it.






		   
AcordesyTabs.com © 2008 Acordes y Tablaturas para guitarra. Tabs and Chords for guitar. Aviso Legal - Contacto
El uso de este sitio está sujeto a la aceptación de los términos y condiciones (27 usuarios online)