tablaturas, partituras y acordes para guitarra
Busca por banda/artista:
 
y/o título de la canción:
A B C D E F G H I J K L M N O P Q R S T U V W X Y Z 0 1 2 3 4 5 6 7 8 9 / Top 100 tabs
Categorías
Usuarios
usuario:
Darse de alta
password:
Artistas más visitados
Publicidad
TOP acordes y tablaturas de Death


Estás en: Inicio > Letra D > Acordes y tablaturas de Death > Story to tell
Story to tell
de Death
Puntúa este acorde/tab:      
(0.5/5)
Reportar este acorde/tab
  Añadir a tus favoritos
  Imprimir
Tune down one whole step (1:D, 2:G, 3:C, 4:F, 5:A, 6:D)
------------------------------------------------------------------------------------

 Riff A--Intro and Solo 1
|-----------------------------------|
|-----------------------------------|
|-----------------------------------|GTR I
|-2--57-7/5-59-9--2--79-9/7-7-7~-| 
|-2--35-5/3-37-7--2--57-7/5-5-5~-|
|-0-----------------0---------------|
|                                   |
|-----------------------------------|
|-----------------------------------|
|----57-7/5-59-9-----79-9/7-7-7~-|GTR II
|-2-----------------2---------------| 
|-2-----------------2---------------|
|-0-----------------0---------------|

 continuation of Riff A
|-------------------------------------|
|-------------------------------------|
|----67-7/4-46-6~-----4-5~----------|GTR I
|-5--45-5/2-24-4~--7-------7-6------|
|-5------------------7-----------8-7~-|
|-3------------------5----------------|
|                                     |
|-------------------------------------|
|----78-8/5-57-7~-------------------|
|-----------------------4-5~----------|GTR II
|-5------------------7-------7-6------|
|-5------------------7-----------8-7~-|
|-3------------------5----------------|

Play Riff A two times

  Solo 1
 |-14-15~--------------12~-1214-1415-15/14-14~-14h15~-|
 |--------17-16-----------------------------------------|
 |--------------17-16~----------------------------------|
 |------------------------------------------------------|
 |------------------------------------------------------|
 |------------------------------------------------------|

 |-15-17-17-15-19-19~-24br----------------------------|
 |-------------------------20-20h22-22~-20-20~-19-19~-|
 |----------------------------------------------------|
 |----------------------------------------------------|
 |----------------------------------------------------|
 |----------------------------------------------------|

 Riff B
|-----------------------------------------------|
|-----------------------------------------------|
|-----------------------------------------------|GTRS I
|-2--------4---------5---2--------7---------5---|  & II
|-2--------2---------3---2--------5---------3---|
|-0--0-0-0---0-0-0-0---0-0--0-0-0---0-0-0-0---0-|
     . . .   . . . .        . . .   . . . .   

Play Riff B two times

 Riff C
|----------------------------------------|
|----------------------------------------|
|----------------------------------------|GTR I
|-2--5-4---7------2--5-4---7----5~-6~----|
|-2--3-2---5-7~---2--3-2---5-33-------5~-|
|-0------0---5~-0-0------0---------------|
|        .      .        .   ..          |
|                                        |
|----------------------------------------|
|-------------------------------8~-7~----|
|----5-4---7---------5-4---7-55-------7~-|GTR II
|-2----------7~---2----------------------|
|-2---------------2----------------------|
|-0------0------0-0------0---------------|


 Fill over Riff C:
 section 1              
|---------------------------|------------------------10--|
|---------10-10h12p10-------|---------10-10h12p10--------|
|-9-11-12-------------12-11-|-9-11-12-------------12-----|GTR III
|---------------------------|----------------------------|
|---------------------------|----------------------------|
|---------------------------|----------------------------|

 section 2
|---------------------------------------------------------|
|---------------------------------13-12-10------12-13-12~-|
|-12-11-9-12-11-9-12-11-9-12-11-9----------12-9-----------|GTR III
|---------------------------------------------------------|
|---------------------------------------------------------|
|---------------------------------------------------------|

Play Riff C two times without fill
Play Riff C one time with fill
			section 1 three times
			section 2 one time

 Riff D.1
|---------------------------|
|---------------------------|
|---------------------------|GTR I
|--------2---------4-----5~-| & II
|---------------------------|
|-000000---0-0-0-0---0-0----|
  ......   . . . .   . .   

 Riff D.2
|----------------------------|
|----------------------------|
|------------------4---4-----|GTR I
|--------2-----------5---5-4-| & II
|----------------------------|
|-000000---0-0-0-0-----------|
  ......   . . . .   

Play Riff D.1 three times
Play Riff D.2 one time 
Play Riff D.1 four times

 Riff E
|-----------------|
|-----------------|
|-----------------|GTR I
|-----4~---0-2----| & II 
|---2----------3~-|
|-0---------------|

 Fill over Riff E
 section 1        section 2
|----------------|----------------|
|-12-10-10-8-----|-13-12-10-8-----|
|-----------11-9-|-----------11-9-|
|----------------|----------------|
|----------------|----------------|
|----------------|----------------|

 section 3 (trem pick all notes/slight palm mute)
|---------------------------------------------------------------------|
|-13-12-10-13-12-10-----------------------------------10-12-13-12-13~-|
|-------------------12-10-12-10-8-10-8-10-12-10-12-10-----------------|
|---------------------------------------------------------------------|
|---------------------------------------------------------------------|
|---------------------------------------------------------------------|
  
 section 4
|------------------------|
|-12-10h12p10----9-------|
|-------------11---9-11~-|
|------------------------|
|------------------------|
|------------------------|

Play Riff E four times with fill
	section 1 four times
	section 2 four times
	section 1 four times
	section 3 one time
	section 1 four times
	section 2 four times
	section 1 three times
	section 4 one time

 Riff F (play E chords first time only)
|-----|-----------------------------------|
|-----|-----------------------------------|
|-----|-----------------------------------|GTR I
|-----|-----------------------------------|
|-4-4-|---4-5--4~----4------4-5--4~---4---|
|-2-2-|-2----------5---5--2---------5---2-|
| . .              . . .            . . . |
|                                         |
|-----|-----------------------------------|
|-----|-----------------------------------|
|-----|-----------------------------------|GTR II
|-----|---6-7--6~----6------6-7--6~---6---|
|-4-4-|-4----------7---7--4---------7---4-|
|-2-2-|-----------------------------------|
  . .              . . .            . . .

Play Riff F two times

 Riff G.1
|------------------------------|
|------------------------------|
|----------------------4-------|GTRS I
|-444--4h5-4~--444-4h5---5-4-2-|  & II
|------------------------------|
|------------------------------|

 Riff G.2
|-------------------------------------|
|-------------------------------------|
|-----------------------------4-------|GTRS I
|-444-4-4-4h5-4~--444-4-4-4h5---5-4-2-|  & II
|-------------------------------------|
|-------------------------------------|

 Riff G.3
|---------------------|
|---------------------|
|---------------------|GTRS I
|-444-4-4-4h5-4~--444-|  & II
|---------------------|
|---------------------|

 Riff G -- Fill 1
 section 1	            section 2 (play twice)
|--------------------------|------------------------|
|--------------------------|------------------------|
|-11~-1112~-1214~-14/12~-|-11~-1112~-12/9~-912~-|
|--------------------------|------------------------|
|--------------------------|------------------------|
|--------------------------|------------------------|
Play Riff G.1 two times
Play Riff G.2 three times times
Play Riff G.3 one time


 Riff H--Solo 2
|----------------------------------------------|
|----------------------------------------------|
|----7-------------7---------------------------|GTR I
|-5--7--4--2-4--5--7---------------------------| & II
|-5--5--4--2-4--5--5---------------------------|
|-3-----2--0-2--3-----333333333333333333333333-|
                      ........................

 Riff I--Solo 2
|--------------------------------------|
|--------------------------------------|
|--------------------------------------|GTR I
|--------------------------------------| & II
|-99-999-7777-1010--9999-999-7777-1010-|
|-77-777-5555--8-8--7777-777-5555--8-8-|
  .. ... ....  . .  .... ... ....  . .

Play Riff H two times
Play Riff I four times


 Riff J.1
|------------------------------------------|
|------------------------------------------|
|------------------------------------------|GTR I
|------2--------2--------------------------|
|-2----2---2----2---2-2-1~-1-2--2-2-1~-1-2-|
|-0-00-0---0-00-0---0-0---------0-0--------|
|   ..       ..     . .         . .        |
|                                          |
|------------------------------------------|
|------------------------------------------|
|-----------------------------------3~-3-4-|GTR II
|------2--------2--------------------------|
|-2----2---2----2---2-2-1~-1-2--2-2--------|
|-0-00-0---0-00-0---0-0---------0-0--------|
    ..       ..     . .         . . 

 continuation of Riff J.1
|----------------------------|
|----------------------------|
|----------------------------|GTR I
|------2--------7-6---6------|
|-2----2--5-7-8-----8---8-7~-|
|-0-00-0---------------------|
|   ..                       |
|                            |
|----------------------------|
|---------------5-4---4------|
|---------2-4-5-----5---5-4~-|GTR II
|------2---------------------|
|-2----2---------------------|
|-0-00-0---------------------|
    ..

 continuation of Riff J.1
|--------------------------------------------|
|---------------------------6-5---5-3--------|
|---------------------5-4-------5-----5-4----|GTR I
|------2--------7-6-------7---------------6~-|
|-2----2--5-7-8-----8------------------------|
|-0-00-0-------------------------------------|
|   ..              .                        |       
|                                            |
|---------------------------8-7---7-5--------|
|---------------------8-7-------8-----8-7----|
|---------------9-8-------9---------------8~-|GTR II
|------2--7-9-10---10------------------------|
|-2----2-------------------------------------|
|-0-00-0-------------------------------------|
    ..              .

 Riff J.2
|------------------------|
|------------------------|
|------------------------|GTR I
|------------------------|
|-2-2-1~-1-2--2-2-1~-1-2-|
|-0-0---------0-0--------|
| . .         . .        |
|------------------------|
|------------------------|
|-----------------3~-3-4-|GTR II
|------------------------|
|-2-2-1~-1-2--2-2--------|
|-0-0---------0-0--------|
  . .         . .

 Riff K--Solo 2
|-------------------|
|-------------------|
|-/9--------8-8-9-9-|
|-/9--9--6--8-8-9-9-|
|-/7--9--6--6-6-7-7-|
|-----7--4----------|

Play Riff J.1 one time
Play Riff J.2 one time
Play Riff K four times
Play only the first line of Riff J.1

Repeat Riff B through Riff G
END.		   
AcordesyTabs.com © 2008 Acordes y Tablaturas para guitarra. Tabs and Chords for guitar. Aviso Legal - Contacto
El uso de este sitio está sujeto a la aceptación de los términos y condiciones (18 usuarios online)