tablaturas, partituras y acordes para guitarra
Busca por banda/artista:
 
y/o título de la canción:
A B C D E F G H I J K L M N O P Q R S T U V W X Y Z 0 1 2 3 4 5 6 7 8 9 / Top 100 tabs
Categorías
Usuarios
usuario:
Darse de alta
password:
Artistas más visitados
Publicidad
TOP acordes y tablaturas de Elvis presley


Estás en: Inicio > Letra E > Acordes y tablaturas de Elvis presley > Love me tender
Love me tender
de Elvis presley
Puntúa este acorde/tab:      
(0.6/5)
Reportar este acorde/tab
  Añadir a tus favoritos
  Imprimir
Standard Tuning 
 EADGBe 
 
1: 
   G         A     D7sus   G 
e(---3-2-3---5---5-3-2-0-2-3-) 
B(-3---3-----2-5-2-1---1---1-) 
G(-0---0-----2---2-2---2---0-) 
D(-0---------------0---0-----) 
A(-----------0---0-----------) 
E(-3---3-------------------3-) 
                      Repeat 
 
2: 
 
e(-7-7-7-7-7-7-7-5h7p5---5-7-----------7-7-7-7-7/8-7-5---5-3-2-(-0-2-3-) 
B(-0---0-4---4-5-------8-------0--0--0-0-------------2-5-2-1---(-1---0-) 
G(-0---0-0---0-5-------5------0--0--0--0-------------2---2-2---(-2---0-) 
D(-0---0-------5-------5-----0--0--0---0-------------------0---(-0-----) 
A(---------------------------------------------------0---0-----(-------) 
E(-------------------------------------------------------------(-----3-) 
 
Play 1&2 as many times as you want.  The song goes 3 times.  Adding a tremelo 
to the song sounds really good.  Esteban ends it with: 
 
e(--7-5-3------------12*-) 
B(------0-0h2p0------12*-) 
G(-7-5--0-------2p0--12*-) 
D(-------------------12*-) 
A(-------------------12*-) 
E(------3------------12*-)   
 
Replace this with the last part of 2 at the end of the song.     
  Good Luck, 
         C.H.
		   
AcordesyTabs.com © 2008 Acordes y Tablaturas para guitarra. Tabs and Chords for guitar. Aviso Legal - Contacto
El uso de este sitio está sujeto a la aceptación de los términos y condiciones (18 usuarios online)