tablaturas, partituras y acordes para guitarra
Busca por banda/artista:
 
y/o título de la canción:
A B C D E F G H I J K L M N O P Q R S T U V W X Y Z 0 1 2 3 4 5 6 7 8 9 / Top 100 tabs
Categorías
Usuarios
usuario:
Darse de alta
password:
Artistas más visitados
Publicidad
TOP acordes y tablaturas de Kiss
:: Beth - Kiss


Estás en: Inicio > Letra K > Acordes y tablaturas de Kiss > Do you remember rock'n'roll radio
Do you remember rock'n'roll radio
de Kiss
Puntúa este acorde/tab:      
(0.1/5)
Reportar este acorde/tab
  Añadir a tus favoritos
  Imprimir
Introdução:

e | ----------------------------- | 
B | ----------------------------- | 
G | ----------------------------- | 
D | -x--x--x-x--x--x-x--x--x--x-- | 
A | -x--x--x-x--x--x-x--x--x--x-- | 
E | -x--x--x-x--x--x-x--x--x--x-- | 
                                 
[ F C F C ] C (2X)

C [ C Bb C ]
Rock'n, rock'n'roll radio   Let's go      

Rock'n, rock'n'roll radio   Let's go      

Rock'n, rock'n'roll radio   Let's go      

Rock'n, rock'n'roll radio   Let's go      

Baixo                                                    
G | ------------------------------------------------------- | 
D | ---------2-2--2-2-5-5-7-7---4-4-7-7--9-9-5-5----------- | 
A | --2-2-5-5--3-3-----------5-5----------------7-7-5-5---- | 
E | -3-3-----------------------------------------------7-7- |  

Junto com...

[ C F G C ] (2X) 
Nos versos:
             
   (C: Abafado)


C               F        G
Do you remember Hullabaloo,                       

Upbeat, Shinding and Ed Sullivan too?             

Do you remember rock'n'roll radio?                

Do you remember rock'n'roll radio?                
                                                  
G | ------------------------------------------------------- | 
D | ---------2-2--2-2-5-5-7-7---4-4-7-7--9-9-5-5----------- | 
A | --2-2-5-5--3-3-----------5-5----------------7-7-5-5---- | 
E | -3-3-----------------------------------------------7-7- | 

[ C F G C ] (2X)
                                                       
Do you remember Murray the K,                          
Alan Freed, and high energy?                           
It's the end, the end of the 70's                      
It's the end, the end of the century                   

e | -----8-8-----8-8-----8-8------8-8-----8-8---------- | 
B | -----8-8-----8-8-----8-8--11b-----11b-----11b~~~~~- | 
G | -10b-----10b-----10b------------------------------- | 
D | --------------------------------------------------- | 
A | --------------------------------------------------- | 
E | --------------------------------------------------- | 
                                                     
                                                     
     Dm             G
   Do you remember lying in bed                      
   C                Am                               
   With your covers pulled up over your head?        
   F                G             C                  
   Radio playin' so no one can see                   
   F                G                                
   We need change, we need it fast                   
   C                Am                               
   Before rock's just part of the past               
   F                                   G             
   'Cause lately it all sounds the same to me        
                                                     
                                                     
[ F C F C ] C (2X)

C [ C Bb C ]  
              
Rock'n, rock'n'roll radio...    
                                
G | ------------------------------------------------------- |   
D | ---------2-2--2-2-5-5-7-7---4-4-7-7--9-9-5-5----------- |   
A | --2-2-5-5--3-3-----------5-5----------------7-7-5-5---- |   
E | -3-3-----------------------------------------------7-7- |   

[ C F G C ] (2X)                          
                                          
                                          
Will you remember Jerry Lee,              
John Lennon, T. Rex and Ol’ Moulty?       
It's the end, the end of the 70's         
It's the end, the end of the century      
                                          
                                          
e | -----8-8-----8-8-----8-8-----------8- | 
B | -11b-----11b-----11b-----11-8-11b---- | 
G | ------------------------------------- | 
D | ------------------------------------- | 
A | ------------------------------------- | 
E | ------------------------------------- |  
                                        
                                        
   Do you remember lying in bed...      

[ F C F C ] C (2X)

C [ C Bb C ]                   
                               
Rock'n, rock'n'roll radio...    		   
AcordesyTabs.com © 2008 Acordes y Tablaturas para guitarra. Tabs and Chords for guitar. Aviso Legal - Contacto
El uso de este sitio está sujeto a la aceptación de los términos y condiciones (71 usuarios online)