tablaturas, partituras y acordes para guitarra
Busca por banda/artista:
 
y/o título de la canción:
A B C D E F G H I J K L M N O P Q R S T U V W X Y Z 0 1 2 3 4 5 6 7 8 9 / Top 100 tabs
Categorías
Usuarios
usuario:
Darse de alta
password:
Artistas más visitados
Publicidad
TOP acordes y tablaturas de Paul mccartney


Estás en: Inicio > Letra P > Acordes y tablaturas de Paul mccartney > Sgt.pepper's lonely heart's club band / the end
Sgt.pepper's lonely heart's club band / the end
de Paul mccartney
Puntúa este acorde/tab:      
(0.3/5)
Reportar este acorde/tab
  Añadir a tus favoritos
  Imprimir
Intro: (4X)  ...show     ...go      ...again            ...end            ...band
E | -1--1------ | -1---------- | ---------- | ------------------- | ---------------- | ------------------
B | -1--1------ | ---3-1------ | -13-11---- | --8-6h8-8-6h8-6h8-- | -15-13h15p13---- | -3---------8--13--
G | ----------- | -------3--1- | -------12- | ------------------- | -------------14- | ----5-3-----------
D | ----------- | ------------ | ---------- | ------------------- | ---------------- | --------5---------
A | ----------- | ------------ | ---------- | ------------------- | ---------------- | ------------------
E | ----------- | ------------ | ---------- | ------------------- | ---------------- | ------------------
                                    Oh Yeah!
E | ----------15------10----12---------------------- | ----10----12----------------------
B | -13-11---------10----12------------------------- | -10----12-------------------------
G | -------12--------------------------------------- | ----------------------------------
D | ----------------------------------0-2-3-4------- | --------------------0-2-3-4-------
A | ----------------------------0-3-4----------4-0-- | --------------0-3-4----------4-0--
E | ------------------------------------------------ | ----------------------------------


[Intro:] F

 F                 G#     Bb           F
Sergeant Pepper's Lonely Heart's Club Band
    Bb                         F
We hope you have enjoyed the show
                   G#     Bb           F
Sergeant Pepper's Lonely Heart's Club Band
       G                      C
We're sorry but it's time to go
Bb
Sergeant Pepper's Lonely
 F
Sergeant Pepper's Lonely
 G
Sergeant Pepper's Lonely
 D
Sergeant Pepper's Lonely
 G                 Bb     C            G
Sergeant Pepper's Lonely Heart's Club Band
      C                       G
We'd like to thank you once again
                   Bb     C            G
Sergeant Pepper's Lonely Heart's Club Band
      A                    D
It's getting very near the end
 C
Sergeant Pepper's Lonely
 G
Sergeant Pepper's Lonely
 A
Sergeant Pepper's Lonely
 C            G  Bb C G A D B E A F#7 A
Heart's Club Band
A   D   B    E
Oh Yeah All Right
A                       F#7      A    A7 D7 A7 D7
Are you gonna be in my dreams tonight
 A7      D7
Love You Love You
       A7          D7
In the end, in the end
       A7          D7
In the end, in the end
A
And in the end
     G
The love you take
      F  G7      F  G7    C
Is equal to the love you make. 		   
AcordesyTabs.com © 2008 Acordes y Tablaturas para guitarra. Tabs and Chords for guitar. Aviso Legal - Contacto
El uso de este sitio está sujeto a la aceptación de los términos y condiciones (37 usuarios online)