tablaturas, partituras y acordes para guitarra
Busca por banda/artista:
 
y/o título de la canción:
A B C D E F G H I J K L M N O P Q R S T U V W X Y Z 0 1 2 3 4 5 6 7 8 9 / Top 100 tabs
Categorías
Usuarios
usuario:
Darse de alta
password:
Artistas más visitados
Publicidad
TOP acordes y tablaturas de Matchbook romance


Estás en: Inicio > Letra M > Acordes y tablaturas de Matchbook romance > If all else fails
If all else fails
de Matchbook romance
Puntúa este acorde/tab:      
(0.6/5)
Reportar este acorde/tab
  Añadir a tus favoritos
  Imprimir
Intro


Verso1

Guitarra 1

e|------------------------------------------------------------------|
B|-----------------------------------------------------7------------|
G|-------------7-----7-----7-----7-----7-----7-----7-----7----------|
D|---------------7-----7-----7-----7-----7-----7-----7-----7--------|
A|-5-5-5-5-5-5-----5-----5-----5-----5-----5-----5-----------5------|
E|------------------------------------------------------------------|

e|------------------------------------------------------------------|
B|---------------------------------------5h7------------------------|
G|---7-----7-----7-----7-----7-----7--------------------------------|
D|-----7-----7-----7-----7-----7-----7-------7----------------------|
A|-5-----5-----5-----5-----5-----5-----5-------5--------------------|
E|------------------------------------------------------------------|

e|------------------------------------------------------------------|
B|-----------------------------------------7------------------------|
G|-7-----7-----7-----7-----7-----7-----7-----7----------------------|
D|---7-----7-----7-----7-----7-----7-----7-----7--------------------|
A|-----5-----5-----5-----5-----5-----5-----------5------------------|
E|------------------------------------------------------------------|

e|------------------------------------------------------------------|
B|------------------------------------------------------------------|
G|---7-----7-----7-----7-----7-----7------7-------7-7-7-7-7-7-------|
D|-----7-----7-----7-----7-----7-----7----7-|x12|-7-7-7-7-7-7-------|
A|-5-----5-----5-----5-----5-----5-----5--5-------4-4-4-4-4-4-------|
E|------------------------------------------------------------------|
                                         /w dist.

e|------------------------------------------------------------------|
B|------------------------------------------------------------------|
G|-7-7-7-7-7--------------------------------------------------------|
D|-7-7-7-7-7-5-5-5-5-5-5-5-5-5-5-5-5-4-4-4-4-4-4--2~----------------|
A|-4-4-4-4-4-5-5-5-5-5-5-5-5-5-5-5-5-4-4-4-4-4-4--2~----------------|
E|-----------3-3-3-3-3-3-3-3-3-3-3-3-2-2-2-2-2-2--0~----------------|


Guitarrra 2

e|------------------------------------------------------------------|
B|------------------------------------------------------------------|
G|-------------7-----7-----7-----7-----7-----7-----6-7-6-7----------|
D|---------------7-----7-----7-----7-----7-----7--------------------|
A|-5-5-5-5-5-5-----5-----5-----5-----5-----5-----5------------------|
E|------------------------------------------------------------------|

e|------------------------------------------------------------------|
B|------------------------------------------------------------------|
G|---7-----7-----7-----7-----7-----7-----7--------------------------|
D|-----7-----7-----7-----7-----7-----7-----7------------------------|
A|-5-----5-----5-----5-----5-----5-----5-----5----------------------|
E|------------------------------------------------------------------|

e|------------------------------------------------------------------|
B|------------------------------------------------------------------|
G|---7-----7-----7-----7-----7-----7-----7--------------------------|
D|-----7-----7-----7-----7-----7-----7-----7------------------------|
A|-5-----5-----5-----5-----5-----5-----5-----5----------------------|
E|------------------------------------------------------------------|

e|------------------------------------------------------------------|
B|------------------------------------------------------------------|
G|---7-----7-----7-----7-----7-----7-----7-------6-6-6-6-6-7--------|
D|-----7-----7-----7-----7-----7-----7---7-|x12|-x-x-x-x-x-x--------|
A|-5-----5-----5-----5-----5-----5-----5-5-------4-4-4-4-4-5--------|
E|------------------------------------------------------------------|
                                         /w dist.

e|------------------------------------------------------------------|
B|------------------------------------------------------------------|
G|-7-9-9-9-9--------------------------------------------------------|
D|-x-x-x-x-x-5-5-5-5-5-5-5-5-5-5-5-5-4-4-4-4-4-4--2~----------------|
A|-5-7-7-7-7-5-5-5-5-5-5-5-5-5-5-5-5-4-4-4-4-4-4--2~----------------|
E|-----------3-3-3-3-3-3-3-3-3-3-3-3-2-2-2-2-2-2--0~----------------|




Verso 2

Guitarra 1

e|------------------------------------------------------------------|
B|-----------------------------------------------------7------------|
G|-------------7-----7-----7-----7-----7-----7-----7-----7----------|
D|---------------7-----7-----7-----7-----7-----7-----7-----7--------|
A|-----------5-----5-----5-----5-----5-----5-----5-----------5------|
E|------------------------------------------------------------------|

e|------------------------------------------------------------------|
B|---------------------------------------5h7------------------------|
G|---7-----7-----7-----7-----7-----7--------------------------------|
D|-----7-----7-----7-----7-----7-----7-------7----------------------|
A|-5-----5-----5-----5-----5-----5-----5-------5--------------------|
E|------------------------------------------------------------------|

e|------------------------------------------------------------------|
B|-----------------------------------------7------------------------|
G|-7-----7-----7-----7-----7-----7-----7-----7----------------------|
D|---7-----7-----7-----7-----7-----7-----7-----7--------------------|
A|-----5-----5-----5-----5-----5-----5-----------5------------------|
E|------------------------------------------------------------------|

e|------------------------------------------------------------------|
B|------------------------------------------------------------------|
G|---7-----7-----7-----7-----7-----7-----7--------------------------|
D|-----7-----7-----7-----7-----7-----7---7-|x12|--------------------|
A|-5-----5-----5-----5-----5-----5-----5-5--------------------------|
E|------------------------------------------------------------------|
                                         /w dist.

e|------------------------------------------------------------------|
B|------------------------------------------------------------------|
G|-7-7-7-7-7-------------------------7------------------------------|
D|-7-7-7-7-7-5-5-5-5-5-5-5-5-5-5-5-5-5-|x12|-5-5-5-5-5-5-5-5--------|
A|-5-5-5-5-5-5-5-5-5-5-5-5-5-5-5-5-5-5-------3-3-3-3-3-3-3-3--------|
E|-----------3-3-3-3-3-3-3-3-3-3-3-3---------3-3-3-3-3-3-3-3--------|

e|------------------------------------------------------------------|
B|------------------------------------------------------------------|
G|-7-7-7-7-7-7-7-7-7-7----------------------------------------------|
D|-7-7-7-7-7-7-7-7-7-7--22222222-2~-44444444-4~-5~------------------|
A|-5-5-5-5-5-5-5-5-5-5--22222222-2~-44444444-4~-5~------------------|
E|----------------------00000000-0~-22222222-2~-3~------------------|
                        P.M.....    ........

Guitarra 2

e|------------------------------------------------------------------|
B|------------------------------------------------------------------|
G|-------------7-----7-----7-----7-----7-----7-----6-7-6-7----------|
D|---------------7-----7-----7-----7-----7-----7--------------------|
A|-----------5-----5-----5-----5-----5-----5-----5------------------|
E|------------------------------------------------------------------|

e|------------------------------------------------------------------|
B|------------------------------------------------------------------|
G|---7-----7-----7-----7-----7-----7-----7--------------------------|
D|-----7-----7-----7-----7-----7-----7-----7------------------------|
A|-5-----5-----5-----5-----5-----5-----5-----5----------------------|
E|------------------------------------------------------------------|

e|------------------------------------------------------------------|
B|------------------------------------------------------------------|
G|---7-----7-----7-----7-----7-----7-----7--------------------------|
D|-----7-----7-----7-----7-----7-----7-----7------------------------|
A|-5-----5-----5-----5-----5-----5-----5-----5----------------------|
E|------------------------------------------------------------------|

e|------------------------------------------------------------------|
B|------------------------------------------------------------------|
G|---7-----7-----7-----7-----7-----7-----7--------------------------|
D|-----7-----7-----7-----7-----7-----7---7-|x12|--------------------|
A|-5-----5-----5-----5-----5-----5-----5-5--------------------------|
E|------------------------------------------------------------------|
                                         /w dist.

e|------------------------------------------------------------------|
B|------------------------------------------------------------------|
G|-7-7-7-7-7-------------------------7------------------------------|
D|-7-7-7-7-7-5-5-5-5-5-5-5-5-5-5-5-5-5-|x12|-5-5-5-5-5-5-5-5--------|
A|-5-5-5-5-5-5-5-5-5-5-5-5-5-5-5-5-5-5-------3-3-3-3-3-3-3-3--------|
E|-----------3-3-3-3-3-3-3-3-3-3-3-3---------3-3-3-3-3-3-3-3--------|

e|------------------------------------------------------------------|
B|------------------------------------------------------------------|
G|-7-7-7-7-7-7-7-7-7-7----------------------------------------------|
D|-7-7-7-7-7-7-7-7-7-7--22222222-2~-44444444-4~-5~------------------|
A|-5-5-5-5-5-5-5-5-5-5--22222222-2~-44444444-4~-5~------------------|
E|----------------------00000000-0~-22222222-2~-3~------------------|
                        P.M.....    ........



Verso 3

Guitarra 1

e|------------------------------------------------------------------|
B|-----------------------------------------------------7------------|
G|-------------7-----7-----7-----7-----7-----7-----7-----7----------|
D|---------------7-----7-----7-----7-----7-----7-----7-----7--------|
A|-----------5-----5-----5-----5-----5-----5-----5-----------5------|
E|------------------------------------------------------------------|

e|------------------------------------------------------------------|
B|------------------------------8-7-8/10--10-8-7--8-7---------------|
G|---7------------------------------------------------7-6-6h7p6-----|
D|-----7--|x6|--------------------------------------------------7---|
A|-5----------------------------------------------------------------|
E|------------------------------------------------------------------|

e|------------------------------------------------------------------|
B|------------------------------------------------------------------|
G|------5/6-7-9-7-6-------------------------------------------------|
D|-7h9--------------7-----------------------------------------------|
A|------------------------------------------------------------------|
E|------------------------------------------------------------------|

e|------------------------------------------------------------------|
B|-----------------------------------------7------------------------|
G|-7-----7-----7-----7-----7-----7-----7-----7----------------------|
D|---7-----7-----7-----7-----7-----7-----7-----7--------------------|
A|-----5-----5-----5-----5-----5-----5-----------5------------------|
E|------------------------------------------------------------------|

e|------------------------------------------------------------------|
B|------------------------------------------------------------------|
G|---7-----7-----7-----7-----7-----7-----7--------------------------|
D|-----7-----7-----7-----7-----7-----7---7-|x12|--------------------|
A|-5-----5-----5-----5-----5-----5-----5-5--------------------------|
E|------------------------------------------------------------------|
                                         /w dist.

e|------------------------------------------------------------------|
B|------------------------------------------------------------------|
G|-7-7-7-7-7-------------------------7------------------------------|
D|-7-7-7-7-7-5-5-5-5-5-5-5-5-5-5-5-5-5-|x12|-5-5-5-5-5-5-5-5--------|
A|-5-5-5-5-5-5-5-5-5-5-5-5-5-5-5-5-5-5-------3-3-3-3-3-3-3-3--------|
E|-----------3-3-3-3-3-3-3-3-3-3-3-3---------3-3-3-3-3-3-3-3--------|

e|------------------------------------------------------------------|
B|------------------------------------------------------------------|
G|-7-7-7-7-7-7-7-7-7-7----------------------------------------------|
D|-7-7-7-7-7-7-7-7-7-7--22222222-2~-44444444-4~-5~------------------|
A|-5-5-5-5-5-5-5-5-5-5--22222222-2~-44444444-4~-5~------------------|
E|----------------------00000000-0~-22222222-2~-3~------------------|
                        P.M.....    ........



Guitarra 2

e|------------------------------------------------------------------|
B|------------------------------------------------------------------|
G|-------------7-----7-----7-----7-----7-----7-----6-7-6-7----------|
D|---------------7-----7-----7-----7-----7-----7--------------------|
A|-----------5-----5-----5-----5-----5-----5-----5------------------|
E|------------------------------------------------------------------|

e|------------------------------------------------------------------|
B|------------------------------------------------------------------|
G|---7-----7-----7-----7-----7-----7-----7--------------------------|
D|-----7-----7-----7-----7-----7-----7-----7------------------------|
A|-5-----5-----5-----5-----5-----5-----5-----5----------------------|
E|------------------------------------------------------------------|

e|------------------------------------------------------------------|
B|------------------------------------------------------------------|
G|---7-----7-----7-----7-----7-----7-----7--------------------------|
D|-----7-----7-----7-----7-----7-----7-----7------------------------|
A|-5-----5-----5-----5-----5-----5-----5-----5----------------------|
E|------------------------------------------------------------------|

e|------------------------------------------------------------------|
B|------------------------------------------------------------------|
G|---7-----7-----7-----7-----7-----7-----7--------------------------|
D|-----7-----7-----7-----7-----7-----7---7-|x12|--------------------|
A|-5-----5-----5-----5-----5-----5-----5-5--------------------------|
E|------------------------------------------------------------------|
                                         /w dist.

e|------------------------------------------------------------------|
B|------------------------------------------------------------------|
G|-7-7-7-7-7-------------------------7------------------------------|
D|-7-7-7-7-7-5-5-5-5-5-5-5-5-5-5-5-5-5-|x12|-5-5-5-5-5-5-5-5--------|
A|-5-5-5-5-5-5-5-5-5-5-5-5-5-5-5-5-5-5-------3-3-3-3-3-3-3-3--------|
E|-----------3-3-3-3-3-3-3-3-3-3-3-3---------3-3-3-3-3-3-3-3--------|

e|------------------------------------------------------------------|
B|------------------------------------------------------------------|
G|-7-7-7-7-7-7-7-7-7-7----------------------------------------------|
D|-7-7-7-7-7-7-7-7-7-7--22222222-2~-44444444-4~-5~------------------|
A|-5-5-5-5-5-5-5-5-5-5--22222222-2~-44444444-4~-5~------------------|
E|----------------------00000000-0~-22222222-2~-3~------------------|
                        P.M.....    ........




Guitarra 1

e|------------------------------------------------------------------|
B|------------------------------------------------------------------|
G|-7-7-7-7-7-7-9-9-9-11-11-11-9-9-9-11-11-11-12-12-12-11-11-11------|
D|-7-7-7-7-7-7-x-x-x--x--x--x-x-x-x--x--x--x-x--x--x--x--x--x-------|
A|-5-5-5-5-5-5-7-7-7--9--9--9-7-7-7--9--9--9-10-10-10-9--9--9-------|
E|------------------------------------------------------------------|

                                                                     x2
e|------------------------------------------------------------------|
B|------------------------------------------------------------------|
G|------------------------------------------------------------------|
D|-5-5-5-5--5-5-5-5--5-5-5-5--5-5-5-5-------------------------------|
A|-5-5-5-5--5-5-5-5--5-5-5-5--5-5-5-5-------------------------------|
E|-3-3-3-3--3-3-3-3--3-3-3-3--3-3-3-3-------------------------------|


Guitarra 2

e|------------------------------------------------------------------|
B|------------------------------------------------------------------|
G|-7-7-7-7-7-7-7-7-7-7-7-7------------------------------------------|
D|-7-7-7-7-7-7-7-7-7-7-7-7-2-2-2-2-2-2-2-2-2-2-2-2------------------|
A|-5-5-5-5-5-5-5-5-5-5-5-5-2-2-2-2-2-2-2-2-2-2-2-2------------------|
E|-------------------------0-0-0-0-0-0-0-0-0-0-0-0------------------|

                                                                     x2
e|------------------------------------------------------------------|
B|------------------------------------------------------------------|
G|------------------------------------------------------------------|
D|-5-5-5-5--5-5-5-5--5-5-5-5--5-5-5-5-------------------------------|
A|-5-5-5-5--5-5-5-5--5-5-5-5--5-5-5-5-------------------------------|
E|-3-3-3-3--3-3-3-3--3-3-3-3--3-3-3-3-------------------------------|





Guitarra 1

e|------------------------------------------------------------------|
B|-------------------------------------------8--------------------|
G|---7-----7-----7-----7-----7-----7-----7--------------------------|
D|-----7-----7-----7-----7-----7-----7-----7------------------------|x2
A|-5-----5-----5-----5-----5-----5-----5----------------------------|
E|------------------------------------------------------------------|


e|------------------------------------------------------------------|
B|-------------------------------------------5/7--------------------|
G|---7-----7-----7-----7-----7-----7-----7--------------------------|
D|-----7-----7-----7-----7-----7-----7-----7------------------------|
A|-5-----5-----5-----5-----5-----5-----5----------------------------|
E|------------------------------------------------------------------|


e|------------------------------------------------------------------|
B|------------------------------------------------------------------|
G|---7-----7-----7-----7-----7-----7-----7--------------------------|
D|-----7-----7-----7-----7-----7-----7-----7------------------------|
A|-5-----5-----5-----5-----5-----5-----5-----5----------------------|
E|------------------------------------------------------------------|


e|------------------------------------------------------------------|
B|-------------------------------------------8--------------------|
G|---7-----7-----7-----7-----7-----7-----7--------------------------|
D|-----7-----7-----7-----7-----7-----7-----7------------------------|
A|-5-----5-----5-----5-----5-----5-----5----------------------------|
E|------------------------------------------------------------------|


Guitarra 2






e|-12-10-9-10-9------------9-10-9-----------------------------------|
B|--------------10-|X3|-10--------10--------------------------------|
G|------------------------------------------------------------------| x4
D|------------------------------------------------------------------|
A|------------------------------------------------------------------|
E|------------------------------------------------------------------|



Verso 4

Guitarra 1

e|------------------------------------------------------------------|
B|------------------------------------------------------------------|
G|-7-7-7-7-7-7-7-7-7-7-7-7-7-------------------------7-7-7-7-7-7-7--|
D|-7-7-7-7-7-7-7-7-7-7-7-7-7-5-5-5-5-5-5-5-5-5-5-5-5-7-7-7-7-7-7-7--|
A|-5-5-5-5-5-5-5-5-5-5-5-5-5-5-5-5-5-5-5-5-5-5-5-5-5-5-5-5-5-5-5-5--|
E|---------------------------3-3-3-3-3-3-3-3-3-3-3-3---------------|
  /w dist.

e|------------------------------------------------------------------|
B|------------------------------------------------------------------|
G|-7-7-7-7-7-------------------------7------------------------------|
D|-7-7-7-7-7-5-5-5-5-5-5-5-5-5-5-5-5-5-|x12|-5-5-5-5-5-5-5-5--------|
A|-5-5-5-5-5-5-5-5-5-5-5-5-5-5-5-5-5-5-------3-3-3-3-3-3-3-3--------|
E|-----------3-3-3-3-3-3-3-3-3-3-3-3---------3-3-3-3-3-3-3-3--------|

e|------------------------------------------------------------------|
B|------------------------------------------------------------------|
G|-7-7-7-7-7-7-7-7-7-7----------------------------------------------|
D|-7-7-7-7-7-7-7-7-7-7--22222222-2~-44444444-4~-5~------------------|
A|-5-5-5-5-5-5-5-5-5-5--22222222-2~-44444444-4~-5~------------------|
E|----------------------00000000-0~-22222222-2~-3~------------------|
                        P.M.....    ........

e|------------------------------------------------------------------|
B|------------------------------------------------------------------|
G|------------------------------------------------------------------|
D|-22222222-2~-44444444-4~-5~--22222222-2~-44444444-4~-5~-----------|
A|-22222222-2~-44444444-4~-5~--22222222-2~-44444444-4~-5~-----------|
E|-00000000-0~-22222222-2~-3~--00000000-0~-22222222-2~-3~-----------|
   P.M.....    ........        ........    ........

Guitarra 2
Guitarra 1.




Guitarra 1

e|----9-10-------------9-9-10-10------------------------------------|
B|-10------10-10-10-10-----------12-12-12-12-10-10-8-8~-------------|
G|------------------------------------------------------------------|
D|------------------------------------------------------------------|
A|------------------------------------------------------------------|
E|------------------------------------------------------------------|


Guitarra 2

e|------------------------------------------------------------------|
B|------------------------------------------------------------------|
G|---7------------------7-------------------------------------------|
D|-----7--|x16|      --7--------------------------------------------|
A|-5------------------5---------------------------------------------|
E|------------------------------------------------------------------|		   
AcordesyTabs.com © 2008 Acordes y Tablaturas para guitarra. Tabs and Chords for guitar. Aviso Legal - Contacto
El uso de este sitio está sujeto a la aceptación de los términos y condiciones (17 usuarios online)