tablaturas, partituras y acordes para guitarra
Busca por banda/artista:
 
y/o título de la canción:
A B C D E F G H I J K L M N O P Q R S T U V W X Y Z 0 1 2 3 4 5 6 7 8 9 / Top 100 tabs
Categorías
Usuarios
usuario:
Darse de alta
password:
Artistas más visitados
Publicidad
TOP acordes y tablaturas de Nothingface


Ether
de Nothingface
Puntúa este acorde/tab:      
(0.9/5)
Reportar este acorde/tab
  Añadir a tus favoritos
  Imprimir
Tabbed by: Alan de Souza Bernardes

Tuning: Drop D, One Half Step Down (Db, Ab, Db, Gb, Bb, Eb)


Intro/Pre-Chorus 
|-----------------------------------------------| 
|-----------------------------------------------| 
|-----------------------------------------------| 
|-----------------------------------------------| 
|-3---2---3---2---3p2---3---2---3---2---3p2-----| 
|---3---3---3---3-----0---0---0---0---0-----3/7-| 

|-----------------------------------------------------------| 
|-----------------------------------------------------------| 
|-----------------------------------------------------------| 
|-----------------------------------------------------------| 
|-7-----7-----7-----7-----7---7---5-----5-----5-----5555555-| 
|-7-7-7-7-7-7-7-7-7-7-7-7-7-7-7-7-7-7-7-7-7-7-5-5-5-5555555-| 
pm . . . . . . . . . . . . . . . . 

Verse Part A 
|---------------------------------| 
|---------------------------------| 
|---------------------------------| 
|-----------------------5-5-5-5-5-| 
|-7-0-0-5-0-7-0-8-0-8-0-3-3-3-3-3-| 
|-----------------------3-3-3-3-3-| 

Verse Part B 
|---------------------------------| 
|---------------------------------| 
|---------------------------------| 
|-7-----5---7-----------5-5-5-5-5-| 
|---0-0---0---0-8-0-8-0-3-3-3-3-3-| 
|-----------------------3-3-3-3-3-| 

Post-Verse 
|-------------------------------------| 
|-------------------------------------| 
|-----------10-10-10-10---------------| 
|-7-7-7-5-7-10-10-10-10-10-10-9-10/12-| 
|-7-7-7-5-7--8--8--8--8-10-10-9-10/12-| 
|-7-7-7-5-7-------------10-10-9-10/12-| 

Intro/Pre-Chorus

Chorus: 
|------------------------------------------------------------------| 
|-5555555555555555--------------------------------------3333333333-| 
|-2222222222222222777777777777777799999999999999994444442222222222-| 
|-3333333333333333XXXXXXXXXXXXXXXX77777777777777772222220000000000-| 
|-----------------555555555555555577777777777777772222220000000000-| 
|---------------------------------77777777777777772222220000000000-| 

|--------------------------------------------------------------| 
|-5555555555555555--------------------------------121212121212-| 
|-222222222222222277777777777777779999999999999999-X-X-X-X-X-X-| 
|-3333333333333333XXXXXXXXXXXXXXXX7777777777777777-9-9-9-9-9-9-| 
|-----------------55555555555555557777777777777777-------------| 
|---------------------------------7777777777777777-------------| 

|----------------------| 
|-10101010101010101010-| 
|--X-X-X-X-X-X-X-X-X-X-| 
|--7-7-7-7-7-7-7-7-7-7-| 
|----------------------| 
|----------------------| 

Post-Chorus 1
|------------------------------| 
|------------------------------| 
|-5-5-5--5-4-4-5-5-5-5-5-5-5-4-| 
|-3-3-3--3-2-2-X-X-X-X-X-X-X-X-| 
|-3-3-3--3-2-2-3-3-3-3-3-3-3-2-| 
|-3-3-3--3-2-2-----------------| 

Verse Part A

Intro/Pre-Chorus

Chorus

Post-Chorus 2 
|-------------------------------------| 
|-------------------------------------| 
|-5-5-5--5----------------------------| 
|-3-3-3--3-22222210101010101010101010-| 
|-3-3-3--3-22222210101010101010101010-| 
|-3-3-3--3-22222210101010101010101010-| 
pm         .......................... 

INTERLUDE: 
|--------------------------------------------------------| 
|--------------------------------------------------------| 
|------------5-5-5-4-4-4/5-5-5-5/7-7-7-7-7-7-7-7-7-7-7-| 
|------------X-X-X-X-X-X-X-X-X-X-X-X-X-X-X-X-X-X-X-X-X-X-| 
|-0-00-0h2-2-3-3-3-2-2-2/3-3-3-3/5-5-5-5-5-5-5-5-5-5-5-| 
|-0-00-0h2-2---------------------------------------------| 

|----------------------------------------------------------| 
|----------------------------------------------------------| 
|-----------10-10-109-9-9-9-7-7-7-5-5-5-4-4-4-4-4-4-| 
|------------X--X--X-X-X-X-X-X-X-X-X-X-X-X-X-X-X-X-X-X-X-X-| 
|-2-2-2/3-3--8--8ó-8-7-7-7-5-5-5-3-3-3-2-2-2-2-2-2-| 
|-2-2-2/3-3------------------------------------------------| 

|--------------------------------------------------------------| 
|--------------------------------------------------------------| 
|-----------10-10-109-9-9-9/12-12-12-12-7-7-7/9-9-9-9-9-9-9-| 
|---------5--X--X--X-X-X-X-X--X--X--X--X-X-X-X-X-X-X-X-X-X-X-X-| 
|-3-3-3/5-5--8--8ó-8-7-7-7/10-10-10-10-5-5-5/7-7-7-7-7-7-7-| 
|-3-3-3/5-5----------------------------------------------------| 

|---------0-0-0------------------------------| 
|---------0-0-0------------------------------| 
|---------0-0-0------------------------------| 
|-5---3---3-3-3--2-2-2-2-2-2-2-2-2-2-2-2-5-4-| 
|-5---3---3-3-3--2-2-2-2-2-2-2-2-2-2-2-2-3-2-| 
|-5---3---3-3-3--2-2-2-2-2-2-2-2-2-2-2-2-----| 
pm               . . . . . . . . . . . . 

Verse Part A

Chorus

Post-Chorus 3
|-------| 
|-------| 
|-------| 
|-5-5-5-| 
|-3-3-3-| 
|-3-3-3-|

Nothingface - Ether
by Nothingface


Iíll never hesitate
Because Iím too good for that
Iíll never show restraint
Because thereís no need for that

I know everyone
Iíve been everywhere
I know everything
Because Iím everybody

We came to take control
We came to sell you freedom
We came to burn you down
We came to brainwash children

And itís not our fault
Itís just your all new suicide

Where we belong
Thereís no one to hurt
Itís some place where we canít be found
Where we belong
Itís darker than space
A feeling that we all push down
So it canít be found

Itís that time again
Can we get it right
He wants us to revolt
To set the world on fire

We wonít show restraint
Because we like the violence
We are security
Wrapped in our brutality

And itís not our fault
Itís just youíre all new suicide

Where we belong
Thereís no one to hurt
Itís some place where we canít be found
Where we belong
Itís darker than space
A feeling that we all push down
So it canít be found

Find our way through space
Weíll never be found by anyone out here
Away from everything that knows
What we did

I know everyone
Iíve been everywhere
I know everything
Because Iím everybody

Where we belong
Thereís no one to hurt
Itís some place where we canít be found
Where we belong
Itís darker than space
A feeling that we all push down
So it canít be found		   
AcordesyTabs.com © 2008 Acordes y Tablaturas para guitarra. Tabs and Chords for guitar. Aviso Legal - Contacto
El uso de este sitio está sujeto a la aceptación de los términos y condiciones (30 usuarios online)