tablaturas, partituras y acordes para guitarra
Busca por banda/artista:
 
y/o título de la canción:
A B C D E F G H I J K L M N O P Q R S T U V W X Y Z 0 1 2 3 4 5 6 7 8 9 / Top 100 tabs
Categorías
Usuarios
usuario:
Darse de alta
password:
Artistas más visitados
Publicidad
TOP acordes y tablaturas de Afi


Estás en: Inicio > Letra A > Acordes y tablaturas de Afi > Over exposure
Over exposure
de Afi
Puntúa este acorde/tab:      
(0.7/5)
Reportar este acorde/tab
  Añadir a tus favoritos
  Imprimir
#= Pick Slide (--)= Palm Mute = Slide Up

Intro
|------------------------------------------------------------------------>
|------------------------------------------------------------------------>
|------------------------------------------------------------------------>
|5-6-7-7777-107-1012-13-1315-1515151615-131515151615-13-7-----------5-6--> X1
|5-6-7-7777-107-1012-13-1315-1515151615-131515151615-13-7-----------5-6-->
|3-4-5-5555-8-5-8-10-11-1113-1313131413-111313131413-11-5###########3-4-->

Verse
|--------------------------------------------------------->
|--------------------------------------------------------->
|--------------------------------------------------------->
|5-6-7-7777-107-1012-13-1315-1515151615-131515151615-13---> X2
|5-6-7-7777-107-1012-13-1315-1515151615-131515151615-13--->
|3-4-5-5555-8-5-8-10-11-1113-1313131413-111313131413-11--->

Chorus
|------------------------------------------------------------------->
|------------------------------------------------------------------->
|------------------------------1212121212121212-101010101010-12-13-->
|1414141414141414-121212121212-1212121212121212-101010101010-12-13-->
|1212121212121212-121212121212-1010101010101010-8-8-8-8-8-8--10-11-->
|-----------------101010101010-------------------------------------->

|------------------------------------------------------------------------>
|------------------------------------------------------------------------>
|------------------------------1212121212121212-101010101010------(--)--->
|1414141414141414-121212121212-1212121212121212-101010101010-5-6-7-77-7-->
|1212121212121212-121212121212-1010101010101010-8-8-8-8-8-8--5-6-7-77-7-->
|-----------------101010101010-------------------------------3-4-5-55-5-->

Play Verse again.

Play Chorus again. Hold last note.

Special
|----------------------------------------------------------------------------->
|----------------------------------------------------------------------------->
|----------------------------------------------------------------------------->
|5-6-(------------------------------------------------------------)-77777777--> X1
|5-6-77777777-55555555-88888888-77777777-66666666-55555555-88888888-77777777-->
|3-4-55555555-55555555-55555555-55555555-55555555-55555555-55555555-55555555-->

|-------------------------------------------------12-->
|-------------------------------------------------12-->
|(-------)----------------------------------------12-->
|777777777-7777775-101010101010-13131313-13-7--12--> X1
|----------------5-101010101010-13131313-13-7--12-->
|----------------38--8-8-8-8-8-8--11111111-11-5--12-->

|----------------------------------------------->    |------------>
|----------------------------------------------->    |------------>
|(--------)------------------------------------->    |-----(--)--->
|777777777-7777775-101010101010-13131313-13--> X1 |5-6-7-77-7--> X4
|----------------5-101010101010-13131313-13-->    |5-6-7-77-7-->
|----------------38--8-8-8-8-8-8--11111111-11-->    |3-4-5-55-5-->

Ending *Hold Last Note*
|---------------------------------------->
|---------------------------------------->
|----(-Gradually-Crescendo-Palm Mute)-*-->
|5-6-77777777777777777777777777777777-7--> X1
|5-6----------------------------------7-->
|3-4----------------------------------5-->

*Note on Ending: Crescendo means a gradual increase in tone or
                 to take away the Palm Muting slowly.		   
AcordesyTabs.com © 2008 Acordes y Tablaturas para guitarra. Tabs and Chords for guitar. Aviso Legal - Contacto
El uso de este sitio está sujeto a la aceptación de los términos y condiciones (24 usuarios online)