tablaturas, partituras y acordes para guitarra
Busca por banda/artista:
 
y/o título de la canción:
A B C D E F G H I J K L M N O P Q R S T U V W X Y Z 0 1 2 3 4 5 6 7 8 9 / Top 100 tabs
Categorías
Usuarios
usuario:
Darse de alta
password:
Artistas más visitados
Publicidad
TOP acordes y tablaturas de Bon jovi


Estás en: Inicio > Letra B > Acordes y tablaturas de Bon jovi > Thief of hearts
Thief of hearts
de Bon jovi
Puntúa este acorde/tab:      
(0.5/5)
Reportar este acorde/tab
  Añadir a tus favoritos
  Imprimir
INTRO: 2x
---------------------------
    D         A         G   | 
e | ---------- | --------- | ---- | 
B | --7--5--7- | -8--7--3- | ---- | 
G | ---------- | --------- | -4-- | 
                            | 
    G                       | 
D | --------------------      | 
A | --5--5--7--9--2--0--      | 
E | --------------------      | 
                            | 
--------------------------- | 


        A       A/G#    F#m  D
You can lock up all the doors
            A           A/G#    F#m   D
Pull up the covers Turn out the lights
A         A/G#      F#m   D
I'll know where you are
       F#m  E/G#  A
It's alright
        

        A    A/G#    F#m  D
You can go ahead and hide
         A         A/G#    F#m  D
You know you can't keep me out
     A       A/G#    F#m     D
I'll find my way I'm here to stay
         F#m        E/G#     A
Even the cops can't save you now


D   G           Em             A
Hey baby Theres nothing you can do
D/F#  G  D/F#     Em      A
Hey baby It isn't up to you


  Bm     G        D
I am the thief of hearts
      Em      C      Bm   A
Don't hide or try to run
     G        Bm                     A  
I'll play the part. I'm the thief of hearts
     G       A          D
I've come to steal your love

---------------------------
    D         A         G   | 
e | ---------- | --------- | ---- | 
B | --7--5--7- | -8--7--3- | ---- | 
G | ---------- | --------- | -4-- | 
                            | 
    G                       | 
D | --------------------      | 
A | --5--5--7--9--2--0--      | 
E | --------------------      | 
                            | 
--------------------------- | 
  D A             G
I am the thief of hearts
    G                      
D | ------------------    
A | --5--5--7--9--2---     
E | ------------------


        A       A/G#    F#m   D
You can hold on to your heart
A         A/G#   F#m  D
You ain't gonna win
A     A/G#   F#m      D
Go ahead and draw the blinds
 F#m      E/G#   A
I'm still coming in


D   G   Em                  A
Hey baby I'm gonna wear you down
D/F#  G  D/F#     Em           A
hey baby Better listen to me now


 Bm     G        D
I'm the thief of hearts
    Em     C       Bm   A
The shadow on your wall
    Bm     G      D
A whisper in your ear
  Em       C      D   D  D/C#
A footstep in the hall
  Bm     G       D
I'm the thief of hearts
     Em       C     Bm  A
Don't hide or try to run
     G        Bm                     A
I'll play the part, I'm the thief of hearts
    G     A          D
I'm gonna steal your love

---------------------------
    D         A         G   | 
e | ---------- | --------- | ---- | 
B | --7--5--7- | -8--7--3- | ---- | 
G | ---------- | --------- | -4-- | 
                            | 
    G                       | 
D | --------------------      | 
A | --5--5--7--9--2--0--      | 
E | --------------------      | 
                            | 
--------------------------- | 
D  A              G
I am the thief of hearts
   G                      
D | ------------------    
A | --5--5--7--9--2---     
E | ------------------


D/F#  G           Em             A
Hey baby Theres nothing you can do
D/F#  G  D/F#      Em             A
Hey, baby You know there ain't no use


  Bm     G        D
I am the thief of hearts
Em     C      Bm   A
Guilty of the charge
        Bm    G        D
You can throw away the keys
    Em     C      D    D   D/C#
And double up the bars
  Bm     G        D
I am the thief of hearts
      Em      C      Bm  A
Don't hide or try to run
     G        Bm                     A
I'll play the part, I'm the thief of hearts
    G      A         D
I'm gonna steal your love

---------------------------
    D         A         G   | 
e | ---------- | --------- | ---- | 
B | --7--5--7- | -8--7--3- | ---- | 
G | ---------- | --------- | -4-- | 
                            | 
    G                       | 
D | --------------------      | 
A | --5--5--7--9--2--0--      | 
E | --------------------      | 
                            | 
--------------------------- | 

  D  A            G   
I am the thief of hearts
   G                      
D | --------------------    
A | --5--5--7--9--2--0--     
E | --------------------

  D  A            G   
I am the thief of hearts

   G                      
D | --------------------    
A | --5--5--7--9--2--0--     
E | --------------------

  D  A            G   
I am the thief of hearts............... 		   
AcordesyTabs.com © 2008 Acordes y Tablaturas para guitarra. Tabs and Chords for guitar. Aviso Legal - Contacto
El uso de este sitio está sujeto a la aceptación de los términos y condiciones (18 usuarios online)