tablaturas, partituras y acordes para guitarra
Busca por banda/artista:
 
y/o título de la canción:
A B C D E F G H I J K L M N O P Q R S T U V W X Y Z 0 1 2 3 4 5 6 7 8 9 / Top 100 tabs
Categorías
Usuarios
usuario:
Darse de alta
password:
Artistas más visitados
Publicidad
TOP acordes y tablaturas de Attaque 77


Estás en: Inicio > Letra A > Acordes y tablaturas de Attaque 77 > Alcohol y desórden
Alcohol y desórden
de Attaque 77
Puntúa este acorde/tab:      
(0.5/5)
Reportar este acorde/tab
  Añadir a tus favoritos
  Imprimir
*Intro: C#5 C#5 Bb5 Bb5  
<- acá c/acorde se toca una vez y se deja sonando
        C#5     Bb5

       *C#5
¿Quien va a tomar las riendas, hoy que el resentimiento
                               A#5 A#5 A#5 A#5
se apoderó de cirntosde obrero os?

La policía corre sin control alguno y la clase baja

incendia los barrios ricos.
*( C#5 Bb5 )
La lluvia limpia el suelo lleno de sangre

que sale de los cuerpos de los delincuentes muertos.
  *C#5
Afuera del estadio los disturbios masivos.
                      Bb5 - Bb5  C#5 - Bb5
Las sirenas otra vez.

Inter: 
( C#5 Bb5 )x2   A5  B5 - C#5  E5 F#5 - C#5  A5  B5 - C#5  ( *B5 )
**  Las hinchadas corren por las escaleras

    las navajas afiladas para el rival.
     *C#5
***  Gases lacrimógenos. Perros ladrando.

     Miradas turbias llenas de alcohol.

(*desde acá los acordes van con Palm Mute)
   Bb5
Alcohol & Desórden.

Alcohol & Desórden.
       C#5
**** Alcohol & Desórden.

     Alcohol & Desórden.
       Bb5
     Alcohol & Desórden.

     Alcohol & Desórden.

(*desde acá van sin Palm Mute)
   C#5
Alcohol & Desórden.

Alcohol & Desórden.
   Bb5
Alcohol & Desórden.

Alcohol & Desórden.
   C#5
Alcohol & Desórden.

Alcohol & Desórden.
         Bb5
***** Alcohol & Desórden.

      Alcohol & Desórden.

Fin: 
C#5 
(dejar sonando)



=========================================================================================
*Intro

   C#5(dejar sonando)        C#5(dejar sonando)
e------------------------- | ------------------------- | 
B--6--6-5--5--8-8-8-6--5-- | --6--6-5--5--8--8-6--5--- | 
G------------------------- | ------------------------- | 
D------------------------- | ------------------------- | 
A------------------------- | ------------------------- | 
E------------------------- | ------------------------- | 

   Bb5(dejar sonando)     Bb5(dejar sonando)
e--------6----------6-- | --------6---------- |    | --13-- | 
B-----6-----6-(6)------ | -----6------------- |    | --15-- |   *se toca una vez y se arrastra
G-----------------7---- | ------------------- |    | --15-- |  la mano hacia atrás no muy rápido
D--8------------------- | --8---------------- |    | --15-- | 
A---------------------- | ------------------- |    | --13-- | 
E---------------------- | ------------------- |    | --x--- | 

        C#5
e-------------------------------- | ----------------------------- | 
B--(5)--6--6-----5--8--8-6-6-6-5- | --6--6-5-5--5--8--8-6-6-6-5-- | 
G-------------------------------- | ----------------------------- | 
D-------------------------------- | ----------------------------- | 
A-------------------------------- | ----------------------------- | 
E-------------------------------- | ----------------------------- | 

   Bb5
e--------6--------6---- | --------6----- | 
B-----6-----6-6-----6-- | -----6--8--6-- | 
G---------------7------ | --------8----- | 
D--8------------------- | --8-----8----- | 
A---------------------- | --------6----- | 
E---------------------- | --------x----- | 

''''''''''''''''''''''''''''''''''''''''''''''''''''''''''''''''''''''''''''''''''''''''''
*C#5: se toca una vez y despues se toca C#5 varias veces hasta el próximo acorde:

e--4---x-x-x-x-x-x-x-x-x-x-x-x-x-x-x-- | 
B--6---x-x-x-x-x-x-x-x-x-x-x-x-x-x-x-- | 
G--6---6-6-6-6-6-6-6-6-6-6-6-6-6-6-6-- | 
D--6---6-6-6-6-6-6-6-6-6-6-6-6-6-6-6-- | 
A--4---4-4-4-4-4-4-4-4-4-4-4-4-4-4-4-- | 
E--x---x-x-x-x-x-x-x-x-x-x-x-x-x-x-x-- | 
     PM.............................


''''''''''''''''''''''''''''''''''''''''''''''''''''''''''''''''''''''''''''''''''''''''''
*(C#5 Bb5):
   C#5
e---------------------------- | ------------------------- | 
B--6--6-5--5-5--8--8-6--6-5-- | --6--6-5--5--8--8-6--5--- | 
G---------------------------- | ------------------------- | 
D---------------------------- | ------------------------- | 
A---------------------------- | ------------------------- | 
E---------------------------- | ------------------------- | 

   Bb5
e--------6----------6-- | --------6----6--6-6-6-- | 
B-----6-----6-(6)------ | -----6----------------- | 
G-----------------7---- | ----------------------- | 
D--8------------------- | --8-------------------- | 
A---------------------- | ----------------------- | 
E---------------------- | ----------------------- | 


''''''''''''''''''''''''''''''''''''''''''''''''''''''''''''''''''''''''''''''''''''''''''
Inter: (C#5 Bb5)x2   A5  B5-C#5  E5 F#5-C#5  A5  B5-C#5  (*B5)

   C#
e------------------------- | ---------------------------- | 
B--6--6-5--5-5-8--8-6--5-- | --6--6-5-5--5--8--8-6--6-5-- | 
G------------------------- | ---------------------------- | 
D------------------------- | ---------------------------- | 
A------------------------- | ---------------------------- | 
E------------------------- | ---------------------------- | 

   Bb
e--------6----------6---- | 
B-----6-----6-(6)-----6-- | 
G-----------------7------ | x2
D--8--------------------- | 
A------------------------ | 
E------------------------ | 

   C#
e------------------------- | ---------------------- | 
B--6---5--5--8--8-6--6-5-- | --6--6-5--5----------- | 
G------------------------- | -------------5--5-7~-- | 
D------------------------- | ---------------------- | 
A------------------------- | ---------------------- | 
E------------------------- | ---------------------- | 

   Bb
e--------6----------6---- | -------6----- | 
B-----6-----6-(6)-----6-- | ----------6-- | 
G-----------------7------ | ------------- | 
D--8--------------------- | --8---------- | 
A------------------------ | ------------- | 
E------------------------ | ------------- | 

A5  B5-C#5  E5 F#5-C#5  A5  B5-C#5  (*B5)

(*B5):
e--x-x-x-x-x-x-x-x-x-x-x-x-x-x-x-x-- | 
B--x-x-x-x-x-x-x-x-x-x-x-x-x-x-x-x-- | 
G--x-x-x-x-x-x-x-x-x-x-x-x-x-x-x-x-- | 
D--9-9-9-9-9-9-9-9-9-9-9-9-9-9-9-9-- | 
A--9-9-9-9-9-9-9-9-9-9-9-9-9-9-9-9-- | 
E--7-7-7-7-7-7-7-7-7-7-7-7-7-7-7-7-- | 
 PM............... 


''''''''''''''''''''''''''''''''''''''''''''''''''''''''''''''''''''''''''''''''''''''''''
**:
e------- | 
B--14--- | 
G------- | 
D------- | 
A------- | 
E------- | 

''''''''''''''''''''''''''''''''''''''''''''''''''''''''''''''''''''''''''''''''''''''''''
***:
e--15--- | 
B------- | 
G------- | 
D------- | 
A------- | 
E------- | 

''''''''''''''''''''''''''''''''''''''''''''''''''''''''''''''''''''''''''''''''''''''''''
****:
e------- |                          | ------- | 
B--14--- |    C#5                   | --11--- |    Bb5
G------- |  Alcohol & Desórden.     | ------- |  Alcohol & Desórden.
D------- |  Alcohol & Desórden.     | ------- |  Alcohol & Desórden.
A------- |                          | ------- | 
E------- |                          | ------- | 

''''''''''''''''''''''''''''''''''''''''''''''''''''''''''''''''''''''''''''''''''''''''''
*****:
e--14--- |                          | ------- | 
B------- |                          | --11--- | 
G------- |  Alcohol & Desórden.     | ------- |  Alcohol & Desórden.
D------- |                          | ------- | 
A------- |                          | ------- | 
E------- |                          | ------- | 

==========================================================================================
~    = Vibrato
x    = No se toca la cuerda en que está
PM.. = Se apoya la mano que lleva la púa antes del puente,
       semi-apagando el sonido (al mismo tiempo que se tocan los acordes)
( )  = Opcional 		   
AcordesyTabs.com © 2008 Acordes y Tablaturas para guitarra. Tabs and Chords for guitar. Aviso Legal - Contacto
El uso de este sitio está sujeto a la aceptación de los términos y condiciones (32 usuarios online)